Login or Register to remove this ad. | Advertise Here

Dancing Doll Calcobrena (Final Fantasy IV) Bass/Guitar Tab

Submitted: Aug 23, 2011 by hashel

5
Average: 5 (1 vote)
Download | Listen
Game: Final Fantasy IV
Composer(s): Nobuo Uematsu
Style: 2 or more instruments, Transcription
Series: Final Fantasy

Click here for a video example.

AutoScroll: Slow | Medium | Fast
Lead

E |-------------||------------|-------------|--11-10-11-10-11-10---|
B |-------------||------------|-------------|----------------------|
G |-------------||o-----------|-------------|----------------------|
D |-------------||o-----------|-------------|----------------------|
A |-------------||------------|-------------|----------------------|
E |-------------||------------|-------------|----------------------|


--11-10-8-----8--10---|-------------|----------------------|
-----------10---------|--10---------|----------------------|
----------------------|-------------|----------------------|
----------------------|-------------|----------------------|
----------------------|-------------|----------------------|
----------------------|-------------|----------------------|


----------------------|----------------------|--10----9--8--7-------|
----------------------|-----------------8----|-----------------11---|
--10-9--10-9--10-9----|--10-9--10-9--10------|----------------------|
----------------------|----------------------|----------------------|
----------------------|----------------------|----------------------|
----------------------|----------------------|----------------------|


----------------------|----------------------|----------------------|
--10-9--8-------------|----------------------|----------------------|
-----------11-10-9----|--8--9--10-9--12-11---|--10----9-------------|
----------------------|----------------------|----------------------|
----------------------|----------------------|----------------------|
----------------------|----------------------|----------------------|


----------------------|----------------------|----------------------|--13---|
----------------------|----------------------|--------10----13-10---|-------|
--8-----9--------12---|--10----9-------------|--7--8-----8----------|-------|
----------------------|----------------------|----------------------|-------|
----------------------|----------------------|----------------------|-------|
----------------------|----------------------|----------------------|-------|


--10----9--8--7-------|----------------------|----------------------|
-----------------11---|--10-9--8-------------|----------------------|
----------------------|-----------11-10-9----|--8--9--10-9--12-11---|
----------------------|----------------------|----------------------|
----------------------|----------------------|----------------------|
----------------------|----------------------|----------------------|


----------------------|----------------------|----------------------|
----------------------|----------------------|----------------------|
--10----9-------------|--8-----9--------12---|--10----9-------------|
----------------------|----------------------|----------------------|
----------------------|----------------------|----------------------|
----------------------|----------------------|----------------------|


----------------------|--13--|||
--------10----13-10---|------|||
--7--8-----8----------|-----o|||
----------------------|-----o|||
----------------------|------|||
----------------------|------|||


Rhythm

E |-------------||---------------------|----------------------|
B |-------------||-------13----13------|--------13----13------|
G |-------------||o------14----14------|--------14----14------|
D |-------------||o--------------------|----------------------|
A |-------------||-12------------------|--12------------------|
E |-------------||---------------------|----------------------|


----------------------|----------------------|----------------------|
--------13----13------|--------13----13------|--------13----13------|
--------14----14------|--------14----14------|--------14----14------|
----------------------|----------------------|----------------------|
----------------------|----------------------|--12------------------|
--13------------------|--13------------------|----------------------|


----------------------|----------------------|----------------------|
--------13----13------|--------13----13------|--------13----13------|
--------14----14------|--------14----14------|--------14----14------|
----------------------|----------------------|----------------------|
--12------------------|----------------------|----------------------|
----------------------|--13------------------|--13------------------|


----------------------|----------------------|----------------------|
--------13----13------|--------13----13------|--------13----13------|
--------14----14------|--------14----14------|--------14----14------|
----------------------|----------------------|----------------------|
--12------------------|--12------------------|----------------------|
----------------------|----------------------|--13------------------|


----------------------|----------------------|----------------------|
--------13----13------|--------13----13------|--------13----13------|
--------14----14------|--------14----14------|--------14----14------|
----------------------|----------------------|----------------------|
----------------------|--12------------------|--12------------------|
--13------------------|----------------------|----------------------|


----------------------|----------------------|----------------------|
--------13----13------|--------13----13------|--------13----13------|
--------14----14------|--------14----14------|--------14----14------|
----------------------|----------------------|----------------------|
----------------------|----------------------|--12------------------|
--13------------------|--13------------------|----------------------|


----------------------|----------------------|----------------------|
--------13----13------|--------13----13------|--------13----13------|
--------14----14------|--------14----14------|--------14----14------|
----------------------|----------------------|----------------------|
--12------------------|----------------------|----------------------|
----------------------|--13------------------|--13------------------|


----------------------|----------------------|----------------------|
--------13----13------|--------13----13------|--------13----13------|
--------14----14------|--------14----14------|--------14----14------|
----------------------|----------------------|----------------------|
--12------------------|--12------------------|----------------------|
----------------------|----------------------|--13------------------|


---------------------|||
--------13----13-----|||
--------14----14----o|||
--------------------o|||
---------------------|||
--13-----------------|||


Bass

G |-------------||-------9----|--14----12---|--10---|-------------|
D |-------------||o7----------|-------------|-------|-------------|
A |-------------||o-----------|-------------|-------|--8-----10---|
E |-------------||------------|-------------|-------|-------------|


--------9----|--14----12---|--10---|--17---|----------------------|
--7----------|-------------|-------|-------|--------------14------|
-------------|-------------|-------|-------|--------15-17---------|
-------------|-------------|-------|-------|--17------------------|


--14----13-------12---|--10---|-------------|-----------5--9-------|
----------------------|-------|-------------|--7-------------------|
----------------------|-------|--8-----10---|----------------------|
----------------------|-------|-------------|----------------------|


--14----------9-------|--12----11---|--10---------|--------5--7--9-------|
--------10------------|-------------|-------------|--7-------------------|
----------------------|-------------|-----8-------|----------------------|
----------------------|-------------|-------------|----------------------|


--14----13-------12---|--10---|-------------|-----------5--9-------|
----------------------|-------|-------------|--7-------------------|
----------------------|-------|--8-----10---|----------------------|
----------------------|-------|-------------|----------------------|


--14----------9-------|--12----11---|--10--------|||
--------10------------|-------------|-----------o|||
----------------------|-------------|-----8-----o|||
----------------------|-------------|------------|||

6 comments on Dancing Doll Calcobrena

Sweet, I can play this one -

5

Sweet, I can play this one - Calebelijah's calls for 22 frets and I don't current have :(

This one goes along with the

This one goes along with the original song, which I like. (I like playing along with songs!) Caleb's is in a different key for some reason--maybe so that he could play it in the higher octave with only 22 frets instead of 25? Hehe.

maybe with a whammy or

maybe with a whammy or octaver effect ?

Hah, weird, I didn't realize

Hah, weird, I didn't realize that! I like this one better anyway...

ty^^

ty^^

Yeah, me too. It's a good

Yeah, me too. It's a good tab.