Login or Register to remove this ad. | Advertise Here

Dancing Calcobrina (Final Fantasy IV) Guitar Tab

Submitted: Nov 22, 2009 by Jacob31593 (Last updated: Apr 10, 2010)

0
Download | Listen
Game: Final Fantasy IV
Composer(s): Nobuo Uematsu
Style: 2 or more instruments, Alternate picking, Pinch harmonics, Transcription
Series: Final Fantasy

AutoScroll: Slow | Medium | Fast
Dancing Calcobrina from Final Fantasy IV
Composed by Nobuo Uematsu 
Tabbed by Jacob31593
Nov. 22th 2009

Time signature is 3/4.  Must have at least 22 frets to play this song.  

164 BPM

Lead

                       E   E   E   E   E   E      E   E   E   E   E   E               
E||--------|-------|--------------------------|--------------------------|-----|-----|
B||--------|-------|--16--15--16--15--16--15--|--16--15--13------13--15--|-----|-----|
G||*-------|-------|--------------------------|--------------14----------|-----|-----|
D||*-------|-------|--------------------------|--------------------------|-----|-----|
A||--------|-------|--------------------------|--------------------------|-----|-----|
E||--------|-------|--------------------------|--------------------------|-----|-----|


   E   E   E   E   E   E      E   E   E   E   E   E      Q     E   E   E   E   
--------------------------|----------------------15--|--22----21--20--19--18--|
--18--17--18--17--18--17--|--18--17--18--17--18------|------------------------|
--------------------------|--------------------------|------------------------|
--------------------------|--------------------------|------------------------|
--------------------------|--------------------------|------------------------|
--------------------------|--------------------------|------------------------|


   E   E   E   E   E   E      E   E   E   E   E   E      Q     E  Q.         Q     E  Q     E   
--------------------------|--------------------------|-------------------|---------------------|
--22--21--20--19--18--17--|--16--17--18--17--20--19--|--18----17---------|--16----17-------20--|
--------------------------|--------------------------|-------------------|---------------------|
--------------------------|--------------------------|-------------------|---------------------|
--------------------------|--------------------------|-------------------|---------------------|
--------------------------|--------------------------|-------------------|---------------------|


                                                    PH                                     
   Q     E  Q.         E   E   E   E   E   E        H.               Q     E   E   E   E   
-------------------|----------17------20--17--|--<>13------------|--22----21--20--19--18--|
--18----17---------|--15--16------16----------|------------------|------------------------|
-------------------|--------------------------|------------------|------------------------|
-------------------|--------------------------|------------------|------------------------|
-------------------|--------------------------|------------------|------------------------|
-------------------|--------------------------|------------------|------------------------|


   E   E   E   E   E   E      E   E   E   E   E   E      Q     E  Q.         Q     E  Q     E   
--------------------------|--------------------------|-------------------|---------------------|
--22--21--20--19--18--17--|--16--17--18--17--20--19--|--18----17---------|--16----17-------20--|
--------------------------|--------------------------|-------------------|---------------------|
--------------------------|--------------------------|-------------------|---------------------|
--------------------------|--------------------------|-------------------|---------------------|
--------------------------|--------------------------|-------------------|---------------------|


                                                    PH              
   Q     E  Q.         E   E   E   E   E   E        H.            3x
-------------------|----------17------20--17--|--<>13-------------||
--18----17---------|--15--16------16----------|-------------------||
-------------------|--------------------------|------------------*||
-------------------|--------------------------|------------------*||
-------------------|--------------------------|-------------------||
-------------------|--------------------------|-------------------||




Duration Legend
---------------
W - whole
H - half
Q - quarter
E - 8th
. - note dotted



Tablature Legend
----------------
L - tied note
PH - pitch harmonic


Rhythm

      Q     E  E   E  E   
E||----------------------|
B||--------10-----10-----|
G||---------9------9-----|
D||---7------------------|
A||----------------------|
E||----------------------|

Duration Legend
---------------
Q - quarter
E - 8th