Login or Register to remove this ad. | Advertise Here

Chocobo-Chocobo (Final Fantasy IV) Guitar Tab

Submitted: Jul 16, 2011 by diralark

5
Average: 5 (5 votes)
Download | Listen
Game: Final Fantasy IV
Composer(s): Nobuo Uematsu
Style: Arrangement, Fingerstyle
Series: Final Fantasy

AutoScroll: Slow | Medium | Fast
                        Chocobo-Chocobo   from  Final Fantasy IV                                      

Music by Nobuo Uematsu >> Guitar solo arr.by Diralark

Piano perf. : http://www.youtube.com/watch?v=S8Wow6hOIaM

Guitar, D-tuning, Tempo 120

     E  S S E  E  E  E  E  E       Q    E  E  E  E  E  E     E  S S E  E  E  E  E  E   
E||---------------------------||--------------------------|---------------------------|
B||--3--0------------------1--||---0----------------------|--3--0------------------1--|
G||-------0----2-----2--------||*--0-------2--L-----------|-------0----2-----2--------|
D||--0------0--0-----3-----0--||*-------0-----L--0-----0--|--0------0--0-----3-----0--|
A||------------3-----3--------||-----------3--L-----------|------------3-----3--------|
D||--5------------------------||---5----------------------|--5------------------------|


  Q    E  E  E  E  E  E     E  S S E  E  E  E  E  E     Q    E  E  E  E  E  E   
-------------------------|---------------------------|-------------------------|
--0----------------------|--3--0------------------1--|--0----------------------|
--0----------------------|-------0----2-----2--------|--0-------2--L-----------|
--0----------------------|--0------0--0-----3-----0--|-------0-----L--0-----0--|
-------------------------|------------3-----3--------|----------3--L-----------|
--5-------2-----3-----4--|--5------------------------|--5----------------------|

                            1,3._________________      Double Segno  
  E  S S E  E  E  E  E  E     E  E  E  E  E  E  E  E     Q    E  E  E  E  E  E   
---------------------------|--------------------------|-------------------------|
--3--0------------------1--|--------------------------|--3----0--------3--0-----|
-------0----2-----2--------|--------------------------|----------0-----------0--|
--0------0--0-----3-----0--|--------------------------|-------------2-----------|
------------3-----3--------|--------------------------|-------------------------|
--5------------------------|-----------2-----3-----4--|--5-------0-----0--3--0--|

                                  
  Q    E  E  E  E  E  E     E  S  S  E  E  E  E  E  E     E  S S  E  E  E  E  E  E   
-------------------------|-----------------------------|-------------0--1-----------|
--0----------0-----------|-----------------------------|-------0h-3-----------------|
-------0--------------2--|--0--0h-2p-0-----0-----------|--0--0----------------------|
-------------------------|--------------3-----------3--|----------------------------|
-------------------------|-----------------------------|----------------------------|
--5-------0-----0--3--0--|--5-----------0-----0--3--0--|--5----------0-----0--3--0--|

Segno
  Q    E  E  E  E  E  E     Q    E  E  E  E  E  E     E  S  S  E  E  E  E  E  E   
-------------------------|-------------------------|-----------------------------|
--3----0--------3--0-----|--0----------0-----------|-----------------------------|
----------0-----------0--|-------0--------------2--|--0--0h-2p-0-----0-----------|
-------------2-----------|-------------------------|--------------3-----------3--|
-------------------------|-------------------------|-----------------------------|
--5-------0-----0--3--0--|--5-------0-----0--3--0--|--5-----------0-----0--3--0--|

                                                        III    -]
  E  S S  E  E  E  E  E  E     Q    E  E  E  E  E  E     E  E  Q    E  E  Q     
-------------0--1-----------|--0-------------------0--|--------3---------------|
-------0h-3-----------------|-------1-----------1-----|--3----------3-----0----|
--0--0----------------------|----------2-----2--------|------------------------|
----------------------------|-------------4--------0--|----------------2-------|
----------------------------|--3-------3--------------|------------------------|
--5----------0-----0--3--0--|-------------------------|--5--5--4S---2----------|


  Q    E  E  E  E  E  E     E  S  S  E  E  E  E  E  E     Q    E  E  E  E  E  E   
-------------------------|-----------------------------|--0-------------------0--|
--1-------------------1--|--0--0h-1p-0-----0-----------|-------1-----------1-----|
-------2-----------2-----|--------------2--------------|----------2-----2--------|
----------4--0--4-----0--|-----------------2--1--0-----|-------------4--------0--|
--3-------3--------------|--------------------------4--|--3-------3--------------|
-------------------------|--5-----------3--------------|-------------------------|

III    -]                                                                       Da Double Segno
  E  E  Q    E  E  Q       E  S S E  E  E  E  E  E     E  S S  E  E  Q    Q     
--------3---------------|---------------------------|----------------0----2----|
--3----------3-----0----|-------0-------------------|-------0h-1--3-------1----|
------------------------|--2--2---2--0--2--------0--|--2--2---------------2----|
----------------2-------|---------------------------|--0------------------0----|
------------------------|---------------------------|-----3-------2--0---------|
--5--5--4S---2----------|--3------3-----3--3--3-----|--------------------------|


                              2._____________________           II               -]  
  E  S S E  E  E  E  E  E       E  E  E  E  E  E  E  E     Q    E  E  E  E  E  E   
----------------------------||--------------------------|--0----------------------|
--3--0------------------1---||--------------------------|-------2--------5--2-----|
-------0----2-----2--------*||--------------------------|----------2-----------2--|
--0------0--0-----3-----0--*||--------------------------|-------------4-----------|
------------3-----3---------||--------------------------|--0----------------------|
--5-------------------------||-----3-----4-----5-----6--|----------2-----2--5--2--|

       II          -]                                                 II           -]
  Q    E  E  E  E  E  E     E  S  S  E  E  E  E  E  E     E  S S  E  E  E  E  E  E   
-------------------------|-----------------------------|-------------2--3-----------|
--2----------2--------0--|-----------------------------|-------2h-5-----------------|
-------2-----------------|--2--2h-4p-2--0--2--------0--|--2--2----------------------|
-------------------------|-----------------------------|----------------------------|
--0----------------------|--0--------------------------|--0-------------------------|
----------2-----2--5--2--|--------------2-----2--5--2--|-------------2-----2--5--2--|
 
      II               -]       II           -]
  Q    E  E  E  E  E  E     Q    E  E  E  E  E  E     E  S  S  E  E  E  E  E  E   
--0----------------------|-------------------------|-----------------------------|
-------2--------5--2-----|--2----------2--------0--|-----------------------------|
----------2-----------2--|-------2-----------------|--2--2h-4p-2--0--2--------0--|
-------------4-----------|-------------------------|-----------------------------|
--0----------------------|--0----------------------|--0--------------------------|
----------2-----2--5--2--|----------2-----2--5--2--|--------------2-----2--5--2--|


            II                VI                           --                       
  E  S S E  E  E  E  E  E     Q     E  E  E  E   E  E      Q    E  E   E  E  E  E   
---------0--2--3-----------|---------------------------|---------------------------|
-------2-------------------|---------------------------|---------------------------|
--2--2---------------------|--8--------------8---------|---------------------------|
---------------------------|-------10--6--------10--6--|--10----6-----10--------8--|
--0------------------------|-----------6--8--6------6--|-----------6------6--9--6--|
------------2-----2--5--2--|--6------------------------|---6-----------------------|


  --                            --                 Da Segno   4.________________            
  E  S  S  E  E  E  E  E  E     E  S   S E  E  E  E  E  E      E  E  E  E  E  E  E  E    
-----------------------------|-----------------------------||--------------------------|
-----------------------------|--------------6--7-----------||--------------------------|
-----------------------------|-----------8-----------------||--------------------------|
--6--6h-8p-6-----6-----------|--6--6h-10-------------------||--------------------------|
--------------9-----6--9--6--|--------------6-----6--9--6--||--------------------------|
--6--------------------------|--6--------------------------||-----------2-----3-----4--|

                                  fine                                    
  W                   H        H          
-------------------|--------------------||
-------------------|--------------------||
--0----------------|--L-----------------||
--0----------------|--L-----------------||
-------------------|--------------------||
--5----------------|--L-----------------||


Legend
---------------
H - half
Q - quarter
E - 8th
S - 16th
. - note dotted
L - tied note
h - hammer on
p - pull off

note 1 : 13th & 18th Bar are difficult for me, then I use "S slide" coz it's just easier/faster, 
         so sounding as "slide" is useless, fingersteps is noted inside gp5 or pdf files.
note 2 : Loops are complex to understand, midi or gp5 files can help
         (but the midi generated is wrong -_-' )