Login or Register to remove this ad. | Advertise Here

Boss Battle Theme (Final Fantasy IV) Bass/Guitar Tab

Submitted: May 04, 2011 by hashel (Last updated: Aug 25, 2011)

3.5
Average: 3.5 (2 votes)
Download | Listen
Game: Final Fantasy IV
Composer(s): Nobuo Uematsu
Style: 2 or more instruments, Transcription
Series: Final Fantasy

Click here for a video example.

AutoScroll: Slow | Medium | Fast
MELODY

E |----------------------------|----------------------------||---------------|
B |----------------------------|----------------------------||----8--7L-7L---|
G |----------------------------|----------------------------||o--------------|
D |--10-10-10-10-10-10-8--8----|--10-10-10-10-10-10-8--8----||o5-------------|
A |----------------------------|----------------------------||---------------|
E |----------------------------|----------------------------||---------------|


----------------------------|----------------------------|-----------------|
--7-------------------------|----------------------------|-----------11----|
--------7--8--10-10-8--7----|--8-------------------------|--5--7--8--------|
----------------------------|-----10L10L---10L---10L10---|-----------------|
----------------------------|----------------------------|-----------------|
----------------------------|----------------------------|-----------------|


--------|-------|-------|--------------------------|
--10----|--9----|--8----|--7L----------7--7--8-----|
--------|-------|-------|----------------------8---|
--------|-------|-------|--------------------------|
--------|-------|-------|--------------------------|
--------|-------|-------|--------------------------|


----------------------------|----------------------------|
----------------------------|----------------------------|
--7-5-----------------------|-----------------6--7--6----|
----------------------------|----------------------------|
----------------------------|----------------------------|
----------------------------|----------------------------|


----------------------------|----------------------------|----------------|
----------------------------|----------------------------|-----8--7L-7L---|
--5-----4--5--7-----5--7----|--8-----7--8--10----8--10---|----------------|
----------------------------|----------------------------|--5-------------|
----------------------------|----------------------------|----------------|
----------------------------|----------------------------|----------------|


----------------------------|----------------------------|-----------8----|
--7-------------------------|----------------------------|----------------|
--------7--8--10-10-8--7----|--8-------------------------|--5--7--8-------|
----------------------------|-----10L10L---10L---10L10---|----------------|
----------------------------|----------------------------|----------------|
----------------------------|----------------------------|----------------|


--7----|--6----|--5----|--4L----------4-------------|
-------|-------|-------|-----------------9--10------|
-------|-------|-------|-----------------------10---|
-------|-------|-------|----------------------------|
-------|-------|-------|----------------------------|
-------|-------|-------|----------------------------|


----------------------------|----------------------------|
----------------------------|----------------------------|
----------------------------|-----------------6--7--6----|
--12-11---------------------|----------------------------|
----------------------------|----------------------------|
----------------------------|----------------------------|


----------------------------|----------------------------|
----------------------------|----------------------------|
--5-----4--5--7-----5--7----|--8-----7--8--10----8--10---|
----------------------------|----------------------------|
----------------------------|----------------------------|
----------------------------|----------------------------|


----------------------------|--8-------------------------|
--------9L-9--8L-8--9L-9----|-----9--8--9--8L-8----------|
--10L10---------------------|--------------------10L10---|
----------------------------|----------------------------|
----------------------------|----------------------------|
----------------------------|----------------------------|


----------------------------|----------------------------|
----------------------------|-----------8--9--8-----8----|
-----------------6--6--8----|--10L10L10----------10------|
--8--10-11L11L11------------|----------------------------|
----------------------------|----------------------------|
----------------------------|----------------------------|


--------8L-8L-8L-8L-8L-8----|--------4L-4L-4L-4L-4L-4----|
--9L-9----------------------|--6L-6----------------------|
----------------------------|----------------------------|
----------------------------|----------------------------|
----------------------------|----------------------------|
----------------------------|----------------------------|


----------------------------|----------------------------|
--------6L-6L-6L-6L-6L-6----|----------------------------|
--5L-5----------------------|----------------------------|
----------------------------|--------3L-3L-3L-3L-3L-3----|
----------------------------|--3L-3----------------------|
----------------------------|----------------------------|


----------------------------|--9-------------------------|
--------11L11-9L-9--11L11---|-----11-9--11-9L-9--7L-7----|
--11L11---------------------|----------------------------|
----------------------------|----------------------------|
----------------------------|----------------------------|
----------------------------|----------------------------|


----------------------------|--6-------------------------|
--------7L-7--6L-6--7L-7----|-----7--6--7--6L-6----------|
--8L-8----------------------|--------------------8L-8----|
----------------------------|----------------------------|
----------------------------|----------------------------|
----------------------------|----------------------------|


----------------------------|----------------------------|----------------|
--7--9--10L10L---10L---10L--|--10L10L10L10-10L10-12L12---|--13L13L13L13L--|
----------------------------|----------------------------|----------------|
----------------------------|----------------------------|----------------|
----------------------------|----------------------------|----------------|
----------------------------|----------------------------|----------------|


----------------------------|-------|----------------|
--13L13L---13-13L13-15L15---|--16L--|--16L16L16L16---|
----------------------------|-------|----------------|
----------------------------|-------|----------------|
----------------------------|-------|----------------|
----------------------------|-------|----------------|


----------------------------|---------------------------|||
--15L15----15L15----15L15---|-----15L15----15----15-----|||
----------------------------|--------------------------o|||
----------------------------|--------------------------o|||
----------------------------|---------------------------|||
----------------------------|---------------------------|||

RHYTHM

E |----------------------------|----------------------------||
B |----------------------------|----------------------------||
G |----------------------------|----------------------------||
D |----------------------------|----------------------------||
A |----------------------------|----------------------------||
E |--8--8--8--8--8--8--6--6----|--8--8--8--8--8--8--6--6----||


---------------------------|----------------------------|
---------------------------|----------------------------|
o5--5--------5--5----------|--5--5--------7--7----------|
o5--5--------5--5----------|--5--5--------7--7----------|
-3--3--------3--3----------|--3--3--------5--5----------|
---------------------------|----------------------------|


----------------------------|----------------------------|
----------------------------|----------------------------|
--5--5--------5--5----------|--5--5--------3--3----------|
--5--5--------5--5----------|--5--5--------3--3----------|
--3--3--------3--3----------|--3--3--------1--1----------|
----------------------------|----------------------------|


----------------------------|----------------------------|
----------------------------|----------------------------|
----------------------------|----------------------------|
--5--7-----5--8--8-----8----|--5--7-----5--8--4-----4----|
----------------------------|----------------------------|
----------------------------|----------------------------|


----------------------------|----------------------------|
----------------------------|----------------------------|
----------------------------|----------------------------|
--5--7-----5--8--8-----8----|--5--7-----5--8--4----------|
----------------------------|----------------------------|
----------------------------|----------------------------|


----------------------------|----------------------------|----------------|
----------------------------|----------------------------|----------------|
----------------------------|----------------------------|----------------|
----------------------------|----------------------------|--5L-5--3L-3----|
----------------------------|----------------------------|----------------|
----------------------------|----------------------------|----------------|


----------------|----------------------------|----------------------------|
----------------|----------------------------|----------------------------|
----------------|--5--5--------5--5----------|--5--5--------7--7----------|
----------------|--5--5--------5--5----------|--5--5--------7--7----------|
--6L-6--5L-5----|--3--3--------3--3----------|--3--3--------5--5----------|
----------------|----------------------------|----------------------------|


----------------------------|----------------------------|
----------------------------|----------------------------|
--5--5--------5--5----------|--5--5--------3--3----------|
--5--5--------5--5----------|--5--5--------3--3----------|
--3--3--------3--3----------|--3--3--------1--1----------|
----------------------------|----------------------------|


----------------------------|----------------------------|
----------------------------|----------------------------|
----------------------------|----------------------------|
--5--7-----5--8--8-----8----|--5--7-----5--8--4-----4----|
----------------------------|----------------------------|
----------------------------|----------------------------|


----------------------------|----------------------------|----|----|----|----|
----------------------------|----------------------------|----|----|----|----|
----------------------------|----------------------------|----|----|----|----|
--5--7-----5--8--8-----8----|--5--7-----5--8--4----------|----|----|----|----|
----------------------------|----------------------------|----|----|----|----|
----------------------------|----------------------------|----|----|----|----|


----------------------------|----------------------------|
----------------------------|----------------------------|
--6--6--------6--6----------|--6--6--------6--6----------|
--6--6--------6--6----------|--6--6--------6--6----------|
--4--4--------4--4----------|--4--4--------4--4----------|
----------------------------|----------------------------|


----------------------------|----------------------------|-------|-------|
----------------------------|----------------------------|-------|-------|
----------------------------|----------------------------|-------|-------|
----------------------------|--------------3L-3----------|-------|-------|
--1L----1-----1L-1--3L-3----|--4L----4-----------4L-4----|-------|-------|
----------------------------|----------------------------|--1L---|--1L---|


-------|-------|-------|----------------------------|-------|-------|-------|
-------|-------|-------|----------------------------|-------|-------|-------|
-------|-------|--6L---|--6L----6--6L-6L-6--5-------|--3L---|--3----|--2L---|
-------|-------|-------|----------------------------|-------|-------|-------|
-------|-------|-------|----------------------------|-------|-------|-------|
--1L---|--1----|-------|----------------------------|-------|-------|-------|


----------------------------|-------|----------------------------|-------|
----------------------------|-------|----------------------------|-------|
--2L----2L-2--2L-2--4L-4----|--5L---|--5L-5L----5--5L-5--7L-7----|--8L---|
----------------------------|-------|----------------------------|-------|
----------------------------|-------|----------------------------|-------|
----------------------------|-------|----------------------------|-------|


-------|----------------------------|---------------------------|||
-------|----------------------------|---------------------------|||
--8----|--7--------7--------7-------|-----7--------7-----7-----o|||
-------|--7--------7--------7-------|-----7--------7-----7-----o|||
-------|--5L-5-----5L-5-----5L-5----|-----5L-5-----5-----5------|||
-------|----------------------------|---------------------------|||

HARMONY

E |----------------|----------------------------------------------------||
B |----------------|--------------------------------------------6--8----||
G |----------------|-----------------------------------4--6--7----------||
D |----------------|--------------------------3--6--7-------------------||
A |----------------|----------------------------------------------------||
E |----------------|----------------------------------------------------||


---------------------------|----------------------------|
-------------8-------------|----------------------------|
o5--8--7--8-----8--7--8----|--5--8--7--8-----8-----8----|
o--------------------------|--------------6-----5-------|
---------------------------|----------------------------|
---------------------------|----------------------------|


----------------------------|----------------|-------|-------|-------|
--------------8-------------|-----------8----|--7----|--6----|--5----|
--5--8--7--8-----8--7--8----|--5--7--8-------|-------|-------|-------|
----------------------------|----------------|-------|-------|-------|
----------------------------|----------------|-------|-------|-------|
----------------------------|----------------|-------|-------|-------|


----------------------------|----------------|----|----------------|
--4L----------4-------------|----------------|----|----------------|
----------------------------|----------------|----|----------------|
----------------------------|----------------|----|----------------|
----------------------------|----------------|----|----------------|
----------------------------|----------------|----|----------------|


----------------|----------------------------|----------------------------|
----------------|--------------8-------------|----------------------------|
----------------|--5--8--7--8-----8--7--8----|--5--8--7--8-----8-----8----|
----------------|----------------------------|--------------6-----5-------|
----------------|----------------------------|----------------------------|
----------------|----------------------------|----------------------------|


----------------------------|----------------|-------|-------|-------|
--------------8-------------|-----------8----|--7----|--6----|--5----|
--5--8--7--8-----8--7--8----|--5--7--8-------|-------|-------|-------|
----------------------------|----------------|-------|-------|-------|
----------------------------|----------------|-------|-------|-------|
----------------------------|----------------|-------|-------|-------|


----------------------------|----------------|----------------|----------------|
--4L----------4-------------|----------------|----------------|----------------|
----------------------------|----------------|----------------|----------------|
----------------------------|----------------|----------------|----------------|
----------------------------|----------------|----------------|----------------|
----------------------------|----------------|----------------|----------------|


----|----------------|----------------|----------------|----------------|
----|----------------|----------------|----------------|----------------|
----|----------------|----------------|----------------|----------------|
----|----------------|----------------|----------------|----------------|
----|----------------|----------------|----------------|----------------|
----|----------------|----------------|----------------|----------------|


----------------|----|----|----|----|----|----------------|----------------|
----------------|----|----|----|----|----|----------------|----------------|
----------------|----|----|----|----|----|----------------|----------------|
----------------|----|----|----|----|----|----------------|----------------|
----------------|----|----|----|----|----|----------------|----------------|
----------------|----|----|----|----|----|----------------|----------------|


----------------|----------------|----------------|----------------|
----------------|----------------|----------------|----------------|
----------------|----------------|----------------|----------------|
----------------|----------------|----------------|----------------|
----------------|----------------|----------------|----------------|
----------------|----------------|----------------|----------------|


----------------|----------------|----------------------------|
----------------|----------------|----------------------------|
----------------|----------------|--7--------7--------7-------|
----------------|----------------|--7L-7-----7L-7-----7L-7----|
----------------|----------------|--5--------5--------5-------|
----------------|----------------|----------------------------|


---------------------------|||
---------------------------|||
-----7--------7-----7-----o|||
-----7L-7-----7-----7-----o|||
-----5--------5-----5------|||
---------------------------|||

the bass and drums aprt from the gp file are NOT from me, don't remember where i found it ~~

1 comment on Boss Battle Theme

This part

This part :

--------8--7--6--5--4-----------------------
----------------------------9-10--------------
-5-7-8---------------------------10---------
----------------------------------------12-11

Should be :

--------------------------------------------------
-----------11--10--9--8--7----7-8----------
-5-7-8----------------------------------8-7-5
--------------------------------------------------

Sorry for the mistake, thanks to Auriplane for the correction ^^