Login or Register to remove this ad. | Advertise Here

Battle Theme (Final Fantasy IV) Guitar Tab

Submitted: Nov 02, 2010 by Ranulf

5
Average: 5 (1 vote)
Download | Listen
Game: Final Fantasy IV
Composer(s): Nobuo Uematsu
Style: Transcription
Series: Final Fantasy

AutoScroll: Slow | Medium | Fast
Battle Theme
Final Fantasy IV
Super Nintendo
Composer: Nobuo Uematsu
Tabber: John Adams
Date: 11/1/2010


e|----------------------------------------------------|
B|----------------------------------------------------|
G|----------------------------------------------------|
D|----------------------------------------------------|
A|--12-12-12-12-12-12-10-10---12-12-12-12-12-12-10-10-|
E|----------------------------------------------------|

|------------13--12-10------------------------10---------|
|--10---13-------------13--12h13p12h10p12--13------12----|
|-----------------------------------------------------12-|
|--------------------------------------------------------|
|--------------------------------------------------------|
|--------------------------------------------------------|

|------------13--12-10------------------------10---12-13-15---10-13-12-|
|--10---13-------------13--12h13p12h10p12--13--------------------------|
|----------------------------------------------------------------------|
|----------------------------------------------------------------------|
|----------------------------------------------------------------------|
|----------------------------------------------------------------------|

|--10-12-13-15-13-12-10-12------10----|
|----------------------------12----13-|
|-------------------------------------|
|-------------------------------------|
|-------------------------------------|
|-------------------------------------|

|--------10-12-10-12-13-15--10-13-12---10-12-13-15-13-12-10-12------10----|
|--12-13---------------------------------------------------------12----13-|
|-------------------------------------------------------------------------|
|-------------------------------------------------------------------------|
|-------------------------------------------------------------------------|
|-------------------------------------------------------------------------|

|--------10-12-10-------------------10-12-13-15--17--19-20-22-24-25-|
|--12-13----------13-12--10--12--13---------------------------------|
|-------------------------------------------------------------------|
|-------------------------------------------------------------------|
|-------------------------------------------------------------------|
|-------------------------------------------------------------------|

Repeat


---------------
    Legend
---------------
h - hammer on
p - pull off