Login or Register to remove this ad. | Advertise Here

Battle (Final Fantasy IV) Bass Tab

Submitted: May 11, 2009 by auriplane

0
Download | Listen
Game: Final Fantasy IV
Composer(s): Nobuo Uematsu
Style: Transcription
Series: Final Fantasy

AutoScroll: Slow | Medium | Fast
                   Final Fantasy IV - Battle BASS TAB
                          Song by Nobuo Uematsu

                 Tabbed by auriplane (crystal@panix.com)
                             On May 11, 2009
   
        Part A

G |----------------|----------------|--10--10--9---9-|--7---9---10--11|
D |----------------|----------------|----------------|----------------|
A |1212121212121010|1212121212121010|8---8---7---7---|5---7---8---9---|
E |----------------|----------------|----------------|----------------|

G |--12--12--12--12|--12--12--12--12|----------------|----------------|
D |----------------|----------------|----------------|----------------|
A |10--10--10--10--|10--10--10--10--|1212121212121010|1212121212121010|
E |----------------|----------------|----------------|----------------|

G |--10--10--9---9-|--7---9---10--11|--13--13--13--14|----------------|
D |----------------|----------------|----------------|--14--14--14--14|
A |8---8---7---7---|5---7---8---9---|11--11--11--12--|----------------|
E |----------------|----------------|----------------|12--12--12--12--|

        Part B

G |----------------|----------------|----------------|----------------|
D |----------------|----10------9---|----------------|------------109-|
A |--------10----10|------10--10--10|--------10----10|----10----------|
E |8-----8---------|8---------------|8-----8---------|8-8---8---8-----|

G |----------------|----------------|----------------|------------9-7-|
D |7-----7---------|7-----7---7-----|7-----7---------|7-7---10--9-----|
A |--------7-----7-|------------7---|--------7-----7-|----7-----------|
E |----------------|----------------|----------------|----------------|

G |----------------|----------------|----------------|----------------|
D |----------------|----10------9---|----------------|------------109-|
A |--------10----10|------10--10--10|--------10----10|----10----------|
E |8-----8---------|8---------------|8-----8---------|8-8---8---8-----|

G |----------------|----------------|----------------|----------------|
D |7-----7---------|7-----7---7-----|7-----7---------|7-7---10--9-7---|
A |--------7-----7-|------------7---|--------7-----7-|----7---------10|
E |----------------|----------------|----------------|----------------|

G |----------------|----------------|----------------|----------------|
D |----------------|----------------|----------------|----------------|
A |8-8-8-8-8-8-8-8-|8-8-8-8-8-8-8-8-|8-8-8-8-8-8-8-8-|8-8-8-8-8-8-8-8-|
E |----------------|----------------|----------------|----------------|

G |----------------|----------------|
D |9---------------|----------------|
A |----------------|----------------|
E |----------------|----------------|