Login or Register to remove this ad. | Advertise Here

Main Title (Fallout: New Vegas) Guitar Tab

Submitted: Jan 22, 2011 by A Dead Fly

4
Average: 4 (4 votes)
Download | Listen
Game: Fallout: New Vegas
Composer(s): Inon Zur, Mark Morgan
Style: Transcription

AutoScroll: Slow | Medium | Fast
Artist: Inon Zur
Album: Fallout: New Vegas
Song: Main Theme (New Vegas)
Tabbed By: A Dead Fly

Tab for one guitar With Drop D tuning DADGBe

Listen to the song not only for timing, but also for volume changes,
some notes are really quiet

                     ^                ^
e|----------------|--7-------------|--7-------------|----------------|
B|----------------|--6-------------|--6-------------|----------------|
G|----------------|--7-------------|--7-------------|----------------|
D|--0-------------|--0-------------|--0-------------|----------------|
A|--0------0------|----------------|--8---------0---|--3-------------|
D|--0-------------|----------------|----------------|----------------|

e|----------------|----------------|--------|----------------|
B|----------------|----------------|--------|----------------|
G|----------------|----------------|--------|----------------|
D|----------------|----------------|--------|--6--------5--3-|
A|--1----------0--|----------------|------8-|----------------|
D|----------------|--6-------------|--------|----------------|

e|----------------|----------------|----------------|----------------|
B|----------------|----------------|----------------|----------------|
G|----------------|--6---------5---|--4-------------|----------------|
D|-7--------------|----------------|----------------|--6--------5--3-|
A|--------------8-|----------------|-------------8--|----------------|
D|----------------|----------------|----------------|----------------|

e|----------------|----------------|----------------|----------------|
B|----------------|----------------|----------------|--6--------8--6-|
G|----------------|-8---6----------|--4------5---7--|----------------|
D|-7--------------|-------------6--|----------------|----------------|
A|-------------8--|----------------|----------------|----------------|
D|----------------|----------------|----------------|----------------|

e|----------------|----------------|----------------|----------------|
B|-9----------5---|--6-------------|----------------|----------------|
G|----------------|----------------|----------------|----------------|
D|----------------|-------------3--|-6---------5--3-|-7-----------3--|
A|----------------|-------------3--|-8---------5--3-|-8-----------x--|
D|----------------|-------------3--|-6---------5--3-|-7-----------3--|

e|----------------|----------------|----------------|----------------|
B|----------------|----------------|----------------|----------------|
G|----------------|----------------|----------------|-4--------------|
D|--6--------5--3-|-7--------------|----------------|-x--------------|
A|----------------|----------------|--6---4------3--|-2--------------|
D|----------------|----------------|----------------|----------------|

e|----------------|----------------|--------7-------|----------------|
B|----------------|----------------|--------6-------|----------------|
G|----------------|----------------|--------7-------|----------------|
D|----------3-----|----------------|--0-------------|----------------|
A|--3-------------|---3-----4------|-------------0--|--3-------------|
D|----------------|----------------|----------------|----------------|

e|----------------|----------------|----------------|--4-------------|
B|----------------|----------------|--------------5-|--1-------------|
G|--3-------------|----------------|--------------2-|--1----------5--|
D|--x-------------|--6-------------|0--0-3--3-0---0-|----------------|
A|--1-------------|--x-------------|----------------|----------------|
D|-------------7--|--6-------------|----------------|----------------|

e|-8~~~-----------|----------------|----------------|----------------|
B|----------------|--9------10~~12~|----------------|----------------|
G|-----7-9-----10-|--9-------------|----------------|----------------|
D|----------------|--9-------------|--0-------------|----------------|
A|----------------|--7-------------|--0-------------|----------------|
D|----------------|----------------|--0-------------|----------------|

Email questions to azlizard13@yahoo.com

Please give me credit if you use this tab for a video