Login or Register to remove this ad. | Advertise Here

Menchi (Excel Saga) Guitar Tab

Submitted: Nov 12, 2011 by kanshiketsu89 (Last updated: Nov 14, 2011)

5
Average: 5 (2 votes)
Download | Listen
Game: Excel Saga
Composer(s): Toshio Masuda
Style: Arrangement, Artificial harmonics, Fingerstyle, Natural harmonics

This song is also called Aishuu no Borero

AutoScroll: Slow | Medium | Fast
Anime: Excel Saga
Song: Menchi
Composed by: Toshio Masuda
Tabbed by: kanshiketsu89
Type: Fingerstyle, arrangement
Instrument: Guitar


e|---0--------0-1-----|---0--------0-1-----|---0----------0-1-5-3-1-0--------|
B|---1------3---3-----|---1------3---3-----|---1--------3---3---------3-1--0-|
G|-2-----2------2---2-|-2-----2------2---2-|-2-----2--------2----------------|
D|-----2--------0-0---|-----2--------0-0---|-----2---2------0-------0--------|
A|---0------0---------|---0------0---------|---0--------0-------0-------0----|
E|--------------------|--------------------|-------------------------------0-|


e|---0---0---0---0---0---0---0---0---|
B|-----3---1---0---1---3---1---0-----|
G|-2-------------------------------2-|
D|-2---------------------------------|
A|-0---------------0---------------0-|
E|-----------------------------------|


e|---0----0-1-------|---0----0-1-------|---0----0-1-5-3-1-0------<12>--------|
B|---1--3---3-------|---1--3---3-------|---1--3-------------3-1--------<12>--|
G|-2--------2-------|-2--------2-------|-2--------2--------------------------|
D|----------0-------|----------0-------|----------0-------0------<12>--------|
A|---0---------<12>-|---0---------<12>-|---0----------0-------0--------------|
E|------------------|------------------|--------------------------------<12>-|


e|---0----0-1-------|---0----0-1-------|---0----0-1-5-3-1-0--------|-----------|
B|---1--3---3-------|---1--3---3-------|---1--3---3---------3-1--0-|-----------|
G|-2--------2-------|-2--------2-------|-2--------2----------------|-2---------|
D|----------0-------|----------0-------|----------0-------0--------|---2-2---2-|
A|---0---------<12>-|---0---------<12>-|---0----------0-------0----|-0-----0---|
E|------------------|------------------|-------------------------0-|-----------|


e|---5--5---5---------1--0-|-0-----0------|-5-5---5--5-7-8--7----|
B|---6---------10--8-------|---1-3--------|-6--------6---------5-|
G|---7----7----7---5--2----|----------5---|-7---7----------------|
D|-7------0--------0--0----|------------7-|-----0----0---0-------|
A|-----------------------0-|-------0------|-0---------------0----|
E|-------------10----------|--------------|--------------------0-|


e|---0----0-1-------|---0--0---0-1-------|---0----0-1-0---------------------|
B|---1--3---3-------|---1----3---3-------|---1--3-------3---1---0-----------|
G|-2--------2-------|-2----------2-------|-2------------------------2---1---|
D|----------0-------|------------0-------|----------0-----0---0---0---0-----|
A|---0---------<12>-|---0-----------<12>-|---0--0-------0---0---------------|
E|------------------|--------------------|----------------------0---------0-|


e|---------------------------------|
B|------0-1-------0-1-------0-1----|
G|-2--2---2-----2---2--2--2---2----|
D|----2---------2---------2--------|
A|-0---------0---------0---------0-|
E|---------------------------------|

                  AH   AH                      AH   AH  
e|-----<12>------<12>-<13>----|-----<12>------<12>-<13>----|
B|----------------------------|----------------------------|
G|-----------<7>--------------|-----------<7>--------------|
D|-<7>------------------------|-<7>------------------------|
A|--------------------------0-|--------------------------0-|
E|----------------------------|----------------------------|


e|-----<12>----0-1-5-3-1-0--------|---0---0---0---0---0---0---0---0---|
B|-----------3---3---------3-1--0-|-----3---1---0---1---3---1---0-----|
G|---------------2----------------|-2-------------------------------2-|
D|-<7>-----------0-------0--------|-2---------------------------------|
A|-----------0-------0-------0----|-0---------------0---------------0-|
E|------------------------------0-|-----------------------------------|


e|---0-----<12>----0--1-------|---0-----<12>----0--1-------|
B|---1-----------3----3-------|---1-----------3----3-------|
G|-2-----2------------2---2---|-2-----2------------2---2---|
D|-----2--------------0-0---0-|-----2--------------0-0---0-|
A|---0-----------0------------|---0-----------0------------|
E|----------------------------|----------------------------|


e|---0-----<12>----0-1-5-3-1-0------0---------|
B|---1-----------3-------------3-1-----0------|
G|-2-----2-----------2------------------------|
D|-----2-------------0-------0------0---------|
A|---0-----------0--------0------0--------<7>-|
E|-------------------------------------0------|


e|---0-----<12>----0--1-------|---0-----<12>----0--1-------|
B|---1-----------3----3-------|---1-----------3----3-------|
G|-2-----2------------2---2---|-2-----2------------2---2---|
D|-----2--------------0-0---0-|-----2--------------0-0---0-|
A|---0-----------0------------|---0-----------0------------|
E|----------------------------|----------------------------|


e|---0-----<12>----0-1-5-3-1-0--------|-----------|
B|---1-----------3---3---------3-1--0-|-----------|
G|-2-----2-----------2----------------|-2---------|
D|-----2-------------0-------0--------|---2-2---2-|
A|---0-----------0--------0------0----|-0-----0---|
E|----------------------------------0-|-----------|


e|---5--5---5---------1--0-|-0-----0------|-5-5---5--5-7-8--7----|
B|---6---------10--8-------|---1-3----1---|-6--------6---------5-|
G|---7----7----7---5--2----|------------2-|-7---7----------------|
D|-7------0----0---0--0----|--------------|-7---0----0---0-------|
A|-----------------------0-|-------0------|-----------------0----|
E|-------------------------|--------------|--------------------0-|


e|---0-----<12>----0--1-------|---0-----<12>----0--1-------|
B|---1-----------3----3-------|---1-----------3----3-------|
G|-2-----2------------2---2---|-2-----2------------2---2---|
D|-----2--------------0-0---0-|-----2--------------0-0---0-|
A|---0-----------0------------|---0-----------0------------|
E|----------------------------|----------------------------|


e|---0-----<12>----0-1-0---------------------|------------------------------|
B|---1-----------3-------3---1---0-----------|------0-1-------0-1-------0-1-|
G|-2-----2---------------------------2---1---|-2--2---2-----2---2-----2---2-|
D|-----2-------------0-----0---0---0---0-----|----2---------2---------2-----|
A|---0-----------0-------0---0---------------|-0---------0---------0--------|
E|-------------------------------0---------0-|------------------------------|


e|---------|--------------------|---------------------|--------------------------|
B|---------|--------------------|-5--------------2----|-3-0-0--------------2-----|
G|-3--4--6-|-7--------7--7-7----|---6-6------2-4------|-----0------2-4-------4-4-|
D|---------|-----5----5---------|-5---0----------0----|---0----------------0---0-|
A|----5--7-|---5---5----------0-|--------0-0--------0-|--------------------------|
E|-2-------|-7--------7---------|---------------------|-3------3-3------3--------|


e|-----------------2-2---------|-------------------|-------------------------|
B|------0-2-3-2-2------2-2-0-0-|-7-7-10-10-8-8-----|-8-8-7-7---------8-8-7-7-|
G|----------0----------0-------|---------------9-9-|---------7-7-9-9---------|
D|------0----------0-------0---|-----0---------0---|-7-------7---0-------0---|
A|-----------------------------|-0---------0-------|-----------------0-------|
E|-3-3-------------------------|-------------------|-----10------------------|


e|---------------------------------|
B|-------------7-7-5-5-----------0-|
G|-7-7-4-4-7-7---------4-4-6-6-----|
D|-------------------------0-----0-|
A|-----5-------5-------5---------2-|
E|-3------3--------3-------------2-|


e|---------------|-----------------|---------------------------------------|
B|---7----7-8----|---7--7---7-8----|---7----7-8--7---------2---0---------0-|
G|---7--9---9----|---7----9---9----|---7--9--------9---7-----------3-------|
D|-9--------9----|-9----------9----|-9-----------------------2---2-------0-|
A|---------------|-----------------|----------7------7---7---------------2-|
E|---7---------7-|---7-----------7-|---7--7--------7---7---2---------2---2-|

3 comments on Menchi

bravo !

5

Impressive work, I like play this tab.
I found something on youtube, Is it the original version ? the singer is strange :D
http://www.youtube.com/watch?v=61GFr8fVs6g

Hahaha, yes, that's the

Hahaha, yes, that's the original.. It's a strange anime altogether... :D

Nice!

5

sounds good =D I like it =)