Login or Register to remove this ad. | Advertise Here

The Road Most Travelled (The Elder Scrolls III: Morrowind) Guitar Tab

Submitted: Jan 08, 2011 by A Dead Fly

0
Download | Listen
Game: The Elder Scrolls III: Morrowind
Composer(s): Jeremy Soule
Style: Transcription

AutoScroll: Slow | Medium | Fast
Artist: Jeremy Soule
Album: The Elder Scrolls III: Morrowind
Song: The Road Most Travelled
Tabbed by: A Dead Fly

This tab is for one guitar with standard tuning, the song has
really weird timing so you have to listen closely.

e|---------|
B|---3-1---|
G|-3-----2-|
D|---------| Plays this quiet and fast 9 times at the beggining
A|---------|
E|---------|

e|---3h5h6---5--3-|-----------5----|-------5--------|------3h5h6-----|
B|-3--------------|--6-----6-----8-|----6-----8-----|----3-----------|
G|----------------|--------7-------|----7-----------|----------------|
D|----------------|----------------|----------------|----------------|
A|----------------|----------------|----------------|----------------|
E|----------------|----------------|----------------|----------------|

e|-5--3---------5-|----------------|----------3h5h6-|---5--3---------|
B|-------6---6----|-8-----------8--|---6----3-------|----------6-----|
G|-----------7----|----------------|----------------|----------------|
D|----------------|----------8-----|----------------|----------------|
A|----------------|----------------|----------------|----------------|
E|----------------|----------------|----------------|----------------|

e|-----5----------|-5------------5-|----------------|--5-------------|
B|--6-----8-----6-|----8------6----|--8v------------|-----8v---------|
G|--7-----------7-|-----------7----|----------------|----------------|
D|----------------|----------------|----------------|----------------|
A|----------------|----------------|----------------|----------------|
E|----------------|----------------|----------------|----------------|

e|--5-------------|--------6-------|----8-----------|-10-------------|
B|----------------|----------------|----------------|----------------|
G|--2-------------|--------3-------|----5-----------|--7-------------|
D|----------------|----------------|----------------|----------------|
A|----------------|----------------|----------------|----------------|
E|----------------|----------------|----------------|----------------|

e|----------------|--5-------------|---------6------|----8-----------|
B|----------------|----------------|----------------|----------------|
G|----------------|--2-------------|---------3------|----5-----------|
D|----------------|----------------|----------------|----------------|
A|----------------|----------------|----------------|----------------|
E|----------------|----------------|----------------|----------------|

e|-10-------------|----------------|----------------|----------------|
B|----------------|--8-------------|----------------|----------------|
G|--7-------------|----------------|----------------|----------------|
D|----------------|--5-------------|----------------|----------------|
A|----------------|----------------|----------------|----------------|
E|----------------|----------------|----------------|----------------|

e|-------------10-|-11---8---------|----------------|----------------|
B|----------------|----------------|----1h3h4---3-1-|--------3--1----|
G|----------------|----------------|--2-------------|--3-----------2-|
D|----------------|----------------|----------------|----------------|
A|----------------|----------------|----------------|----------------|
E|-10--11---------|----------------|----------------|----------------|

e|----------------|----------------|----------------|----------------|
B|----------------|----------------|----------------|----------------|
G|----------------|----------------|----------------|----------------|
D|----------------|----------------|--7-------------|----------------|
A|----------------|----------------|--5-------------|----------------|
E|----------------|----------------|--5-------------|----------------|

e|----------------|-8h10h11--------|----------------|-8h10h11--------|
B|----------------|----------------|----------------|----------------|
G|----------------|----------------|----------------|----------------|
D|--8-------------|----------------|----------------|----------------|
A|--6-------------|----------------|----------------|----------------|
E|--6-------------|----------------|----------------|----------------|

e|----------------|----------------|----------------|--6p5-----------|
B|----------------|----------------|----------------|----------------|
G|----------------|----------------|----------------|----------------|
D|----------------|----------------|----------------|----------------|
A|----------------|--6-------------|--5-------------|----------------|
E|----------------|-------------5--|----------------|----------------|

e|----------------|-----13---------|---------12-----|----8-----------|
B|----------------|-10-------------|----------------|----------------|
G|----------------|----------------|----------------|----------------|
D|----------------|----------------|----------------|----------------|
A|----------------|----------------|----------------|----------------|
E|----------------|----------------|----------------|----------------|

e|-10-------------|---------6------|-----8----------|-10-----11p10---|
B|----------------|----------------|----------------|----------------|
G|----------------|----------------|----------------|----------------|
D|----------------|----------------|----------------|----------------|
A|----------------|----------------|----------------|----------------|
E|----------------|----------------|----------------|----------------|

e|----------------|--5-------------|----------------|----------------|
B|----------------|----------------|----------------|----------------|
G|----------------|--2-------------|----------------|----------------|
D|----------------|----------------|----------------|----------------|
A|----------------|----------------|----------------|----------------|
E|----------------|----------------|----------------|----------------|

e|----------------|----------------|----------------|----------------|
B|----------------|----------------|----------------|----------------|
G|----------------|----------------|----------------|----------------|
D|----------------|----------------|----------------|----------------|
A|----------------|----------------|----------------|--1----------3--|
E|----------------|----------------|----------------|----------------|

e|----------------|----------------|----------------|---3h5h6---5--3-|
B|----------------|----------------|----------------|-3--------------|
G|----------------|----0-----------|--2----------3--|----------------|
D|----------0-----|----------------|----------------|----------------|
A|----------------|----------------|----------------|----------------|
E|----------------|----------------|----------------|----------------|

e|----------5-----|---------5------|-----3h5h6------|-5--3---------5-|
B|--6----6------8-|------6-----8---|---3------------|-------6----6---|
G|-------7--------|------7---------|----------------|------------7---|
D|----------------|----------------|----------------|----------------|
A|----------------|----------------|----------------|----------------|
E|----------------|----------------|----------------|----------------|

e|----------------|----------3h5h6-|---5--3---------|-----5----------|
B|--8----------8--|--6-----3-------|---------6------|--6-----8-----6-|
G|----------------|----------------|----------------|--7-----------7-|
D|----------8-----|----------------|----------------|----------------|
A|----------------|----------------|----------------|----------------|
E|----------------|----------------|----------------|----------------|

e|--5-----------5-|----------------|-----5----------|----------------|
B|-----8-----6----|--8v------------|--------8v------|----------------|
G|-----------7----|----------------|----------------|----------------|
D|----------------|----------------|----------------|----------------|
A|----------------|----------------|----------------|----------------|
E|----------------|----------------|----------------|----------------|

e|--5-------------|--------6-------|----8-----------|-10-------------|
B|----------------|----------------|----------------|----------------|
G|--2-------------|--------3-------|----5-----------|--7-------------|
D|----------------|----------------|----------------|----------------|
A|----------------|----------------|----------------|----------------|
E|----------------|----------------|----------------|----------------|

e|----------------|--5-------------|---------6------|----8-----------|
B|----------------|----------------|----------------|----------------|
G|----------------|--2-------------|---------3------|----5-----------|
D|----------------|----------------|----------------|----------------|
A|----------------|----------------|----------------|----------------|
E|----------------|----------------|----------------|----------------|

e|-10-------------|----------3h5h6-|----------------|----------------|
B|----------------|--8-----3-------|----------------|----------------|
G|--7-------------|----------------|----------------|----------------|
D|----------------|--5-------------|----------------|----------------|
A|----------------|----------------|----------------|----------------|
E|----------------|----------------|----------------|----------------|

e|---3h5h6---5--3-|--------5--3----|-------5--3-----|------3h5h6-----|
B|-3--------------|--6-----------6-|-------------6--|----------------|
G|----------------|----------------|----------------|----------------|
D|----------------|----------------|----------------|----3-----------|
A|----------------|----------------|----------------|----------------|
E|----------------|----------------|----------------|----------------|

e|-5--3------5--3-|-----------5--3-|----------3h5h6-|-----5--3-------|
B|-------6--------|--6-------------|--6-----3-------|-----------6----|
G|----------------|----------------|----------------|----------------|
D|----------------|----------------|----------------|----------------|
A|----------------|----------------|----------------|----------------|
E|----------------|----------------|----------------|----------------|

e|---5--3-------5-|--3-----------3h|-5h6--5---3-----|----------------|
B|---------6------|-----6----------|--------------6-|--4---3---------|
G|----------------|----------------|----------------|----------3-----|
D|----------------|------------3---|----------------|----------------|
A|----------------|----------------|----------------|----------------|
E|----------------|----------------|----------------|----------------|

e|----------------|----------------|----------------|----------------|
B|----------------|----------------|----------------|--6--10p8-------|
G|----------------|--2-------------|----------------|----------------|
D|----------------|----------------|----------------|-------------8--|
A|----------------|----------------|----------------|----------------|
E|----------------|----------------|----------------|----------------|

e|----------------|----------------|----------------|--3h5h6---------|
B|----------------|----------------|----------------|----------------|
G|----------------|----------------|----------------|----------------|
D|---------10-----|-----12---------|----------------|----------------|
A|----------------|----------------|----------------|----------------|
E|----------------|----------------|----------------|----------------|

Email me at azlizard13@yahoo.com
Please give me credit if you use this tab for a video