Login or Register to remove this ad. | Advertise Here

Over The Next Hill (The Elder Scrolls III: Morrowind) Guitar Tab

Submitted: Jan 08, 2011 by A Dead Fly

0
Download | Listen
Game: The Elder Scrolls III: Morrowind
Composer(s): Jeremy Soule
Style: Fingerstyle, Transcription

AutoScroll: Slow | Medium | Fast
Artist: Jeremy Soule
Album: The Elder Scrolls III: Morrowind
Song: Over the Next Hill
Tabbed by: A Dead Fly

This tab is for one guitar with standard tuning, the song has
really weird timing so you have to listen closely.

e|--0-------------|----------------|--0-------3-----|--4-------------|
B|---------0------|---------5------|----------------|----------------|
G|----------------|----------------|----------------|----------------|
D|--5------1------|--0------2------|----------------|----------------|
A|----------------|----------------|--2---3---------|------7---------|
E|----------------|----------------|--------------3-|------4---------|

e|------1--0------|--1------1------|-0--0h1p0-------|----------------|
B|----------------|----------------|-0--------4-----|----------------|
G|----------------|----------------|----------5-----|----------------|
D|--2-----------2-|----------------|--------------7-|----------------|
A|----------------|----------------|----------------|----------------|
E|----------------|----------------|----------------|----------------|

e|--8-----10-8----|8-10-8-12--10-12|-13-8-7----8-5--|-----4----------|
B|----------------|----------------|----------------|----------------|
G|----------------|----------------|----------------|----------------|
D|----------------|----------------|----------------|----------------|
A|----------------|----------------|----------------|----------------|
E|----------------|----------------|----------------|----------------|

e|----------------|----------------|----------------|---8p5--3--2----|
B|---------3------|-4p3------------|----------------|-5--------------|
G|--4-------------|----------4---2-|-------2--------|----------------|
D|----------------|----------------|----4-----------|----------------|
A|----------------|----------------|----------------|----------------|
E|----------------|----------------|----------------|----------------|

e|----------------|----2-----------|----------------|--5-----11------|
B|--5-------5-----|----------------|--2-4------2----|----------------|
G|--2---4---------|----------------|----------------|--2------8------|
D|--------------2-|----------------|-4--------------|----------------|
A|----------------|----------------|----------------|----------------|
E|----------------|----------------|----------------|----------------|

e|--9-11-------9--|----7---------2-|----------------|----------------|
B|----------------|----------------|----------------|----------------|
G|----------------|------------4---|----------------|----------------|
D|----------------|----------------|---------4---6--|-----6----------|
A|----------------|----------------|----------------|---------4---6--|
E|----------------|----------------|----------------|----------------|

e|----------------|----------------|----------------|----------------|
B|----------------|----------------|----------------|----------------|
G|----------------|---------------4|----------------|-----6-8--------|
D|----------------|---------4--6---|---7---6-4-6----|---6------------|
A|----------------|-4--6-----------|--------------4-|-6--------------|
E|-----4----------|----------------|----------------|----------------|

e|----------------|---------11--12-|----14----------|----------------|
B|----------------|----------------|----------------|----------------|
G|--8------6------|----------8---9-|----11----------|----------------|
D|----------------|----------------|----------------|----------------|
A|--6------4------|----------------|----------------|----------------|
E|----------------|----------------|----------------|----------------|

e|----------------|--------9-11----|--------------4-|----------------|
B|--6------9------|--9-----9-------|--7--------6----|----------------|
G|--6------8------|----------------|----------------|----------------|
D|----------------|----------------|----------------|----------------|
A|----------------|----------------|--------------4-|----------------|
E|----------------|--9-------------|----------------|----------------|

Email me at azlizard13@yahoo.com
Please give me credit if you use this tab for a video