Login or Register to remove this ad. | Advertise Here

Main Theme (The Elder Scrolls III: Morrowind) Guitar Tab

Submitted: Oct 25, 2009 by smiley

0
Download | Listen
Game: The Elder Scrolls III: Morrowind
Composer(s): Jeremy Soule
Style: Arrangement, Fingerstyle

AutoScroll: Slow | Medium | Fast
Main Theme
The Elder Scrolls III: Morrowing
Arranged by: smiley
Date Arranged: October 25th, 2009

e|-------------------------------6-1---1----------------------
B|-1---1-3-4---4---4-6-8---8---8-----0----8s6-4-3-1r----------
G|---0-------0---0-------0---0-----0-----------------0--------
D|---------------------------------------------------------------------
A|-3r------3r----------6r----------------10s8-6-5-3r----------
E|------------------------------------------------------------

e|---------------------------6-8---8---6-10-8---8-10-11r-10-8-6----4-3- 
B|-1-3-4---4---4-6-8---8---8-----0---0--------0-----------------0------
G|-------0---0-------0---0-----0r-----------0r-------0r-------0r-------
D|---------------------------------------------------------------------
A|-3r--3r----------6r--------------------------------------------------
E|--------------------------------------------------------------------

e|-1---
B|---0-
G|-0r--
D|-----
A|----- STRAIGHT INTO NEXT PART (no stopping)
E|-----

e|----3-1-------------------    *
B|--4-----0---4-3-1r--------
G|------0r------------------
D|--------------------------
A|--6r--------6-5-3r--------
E|--------------------------

Repeat.

Then when you think you've done it enough, end with another...

e|---------------------------
B|-4-3-1r--------------------
G|---------------------------
D|---------------------------
A|-6-5-3r--------------------
E|---------------------------


* For this part, play the first *chord* (4-6) with the 2nd and 3rd fingers, 
and hold them when you play the 3rd fret on the e string.
 

@Copyrighted, smiley...I'll sue...