Login or Register to remove this ad. | Advertise Here

Grabbag (Duke Nukem Forever) Guitar Tab

Submitted: May 25, 2011 by A Dead Fly

3.5
Average: 3.5 (2 votes)
Download | Listen
Game: Duke Nukem Forever
Composer(s): Lee Jackson
Style: 2 or more instruments, Artificial harmonics, Transcription, Tremolo

This song is also called Main Theme

AutoScroll: Slow | Medium | Fast
 
Artist: Lee Jackson?
Game: Duke Nukem Forever
Song: Grabbag (duke nukem forever version)

Tabbed by A Dead Fly

Song has one rythym guitar and one lead guitar both with standard tuning, the lead
guitar is about half way down in the tab.


---------------------------------Rythym Guitar----------------------------------
   
Intro

E||------------------------------------|
B||------------------------------------|
G||------------------------------------|
D||------------------------------------|
A||------------------------------------|
E||--2--2pb--2pb--2--2pb--2pb--2--2pb--|

-------------------------------------------||-------------------------|
-------------------------------------------||-------------------------|
------------------------------------------*||-------------------------|
------------------------------------------*||----------2--2--2--------|
-------------------------------------------||-------------------------|
--2pb--2pb--2pb--2pb--2pb--2pb--2pb--2pb---||--2--2-------------2--2--|

--------------------------|-------------------------|
--------------------------|-------------------------|
--------------------------|-------------------------|
-----2--2--2--2--2--2--2--|----------2--2--2--------|
--------------------------|-------------------------|
--2-----------------------|--2--2-------------2--2--|

--------------------------------------|-------------------------|
--------------------------------------|-------------------------|
--------------------------------------|-------------------------|
--------------------------------------|----------2--2--2--------|
--------------------------------------|-------------------------|
-----2--2pb--2pb--2pb--2pb--2pb--2pb--|--2--2-------------2--2--|
   
--------------------------|-------------------------|--------------------------|
--------------------------|-------------------------|--------------------------|
--------------------------|-------------------------|--------------------------|
-----2--2--2--2--2--2--2--|----------2--2--2--------|--------------------------|
--------------------------|-------------------------|---------------x-x--------|
--2-----------------------|--2--2-------------2--2--|---------------x-x-14\----|

Part A
 
|---------------------------|-------------------------|------------------------|
|---------------------------|-------------------------|------------------------|
|---------------------------|-----------------6----7--|----------6-------------|
|---4s--7----9-------4S--9--|-----11-------4--6----7--|-----4----6----9--7--4--|
|---4s--7----9-------4S--9--|-----11-------4--4----5--|-----4----4----9--7--4--|
|---2s--5----7-------2S--7--|------9-------2----------|-----2---------7--5--2--|

-------------------------|
-------------------------|
-------------------------|
--2-------5--------------|  Play part A 2 times
--2-------5----5--4--2---|
--0-------3--------------|

Part B

  PM   PM   PM   PM   PM   PM   PM   PM   
------------------------------------------|
------------------------------------------|
------------------------------------------|
--(4)--(4)--(4)--(4)--(4)--(4)--(4)--(4)--|
--(4)--(4)--(4)--(4)--(4)--(4)--(4)--(4)--|
--(2)--(2)--(2)--(2)--(2)--(2)--(2)--(2)--|

   PM   PM   PM   PM   PM   PM   PM                               
----------------------------------------|------------------------|
----------------------------------------|------------------------|
----------------------------------------|------------------------|
--(4)--(4)--(4)--(4)--(4)--(4)--(4)--2--|--------2--2----2----2--|
--(4)--(4)--(4)--(4)--(4)--(4)--(4)--2--|--------2--2----2----2--|
--(2)--(2)--(2)--(2)--(2)--(2)--(2)--0--|--------0--0----0----0--|

                                  PM   PM   PM   PM   PM   PM    
-----------------------|---------------------------------------|
-----------------------|---------------------------------------|
-----------------------|---------------------------------------|
-----7----5----7----4--|---------(4)--(4)--(4)--(4)--(4)--(4)--|
-----7----5----7----4--|--4b~----(4)--(4)--(4)--(4)--(4)--(4)--|
-----5----3----5----2--|---------(2)--(2)--(2)--(2)--(2)--(2)--|

   PM   PM   PM   PM   PM   PM   PM                                
----------------------------------------|-----------------------|
----------------------------------------|-----------------------|
----------------------------------------|-----------------------|
--(4)--(4)--(4)--(4)--(4)--(4)--(4)--4--|--7--4----7----9----6--|
--(4)--(4)--(4)--(4)--(4)--(4)--(4)--4--|--7--4----7----9----6--|
--(2)--(2)--(2)--(2)--(2)--(2)--(2)--2--|--5--2----5----7----4--|

-----------------------|
-----------------------|
-----------------------|
-----2----6----7-------|
-----2----6----7-------|
-----0----4----5-------|

Bridge

--------------------------|----------------------|
--------------------------|----------------------|
--------------------------|----------------------|
--5--5-----5--------5--5--|-----5----------------|
--5--5-----5--------5--5--|-----5----------------|
--3--3-----3--------3--3--|-----3----------------|

--------------------------|---------------------------|
--------------------------|---------------------------|
--------------------------|---------------------------|
--5--5-----5--------5--5--|-----5---------------------|
--5--5-----5--------5--5--|-----5----------x-x--------|
--3--3-----3--------3--3--|-----3----------x-x-14\----|


Play part A again 4 times

Play part B again one time

Part C

   PM   PM   PM   PM   PM   PM   PM   PM    
|------------------------------------------|
|------------------------------------------|
|--(7)--(7)--(7)--(7)--(7)--(7)--(7)--(7)--|
|--(7)--(7)--(7)--(7)--(7)--(7)--(7)--(7)--|
|--(5)--(5)--(5)--(5)--(5)--(5)--(5)--(5)--|
|--(5)--(5)--(5)--(5)--(5)--(5)--(5)--(5)--|

   PM   PM   PM   PM   PM   PM   PM   PM    
------------------------------------------|
------------------------------------------|
--(7)--(9)--(9)--(9)--(9)--(9)--(9)--(9)--|
--(7)--(9)--(9)--(9)--(9)--(9)--(9)--(9)--|
--(5)--(7)--(7)--(7)--(7)--(7)--(7)--(7)--|
--(5)--(7)--(7)--(7)--(7)--(7)--(7)--(7)--|

   PM   PM   PM   PM   PM   PM   PM                               
-----------------------------------------|-----------------------|
-----------------------------------------|-----------------------|
--(9)--(9)--(9)--(9)--(9)--(9)--(9)------|-----------------------|
--(9)--(9)--(9)--(9)--(9)--(9)--(9)--11--|-----9----7----6----7--|
--(7)--(7)--(7)--(7)--(7)--(7)--(7)---9--|-----7----5----4----5--|
--(7)--(7)--(7)--(7)--(7)--(7)--(7)---9--|-----7----5----4----5--|

   PM   PM   PM   PM   PM   PM   PM   PM   
------------------------------------------|
------------------------------------------|
--(7)--(7)--(7)--(7)--(7)--(7)--(7)--(7)--|
--(7)--(7)--(7)--(7)--(7)--(7)--(7)--(7)--|
--(5)--(5)--(5)--(5)--(5)--(5)--(5)--(5)--|
--(5)--(5)--(5)--(5)--(5)--(5)--(5)--(5)--|

   PM   PM   PM   PM   PM   PM   PM   PM                             
------------------------------------------|-------------------------|
------------------------------------------|-------------------------|
--(9)--(9)--(9)--(9)--(9)--(9)--(9)--(9)--|-------------------------|
--(9)--(9)--(9)--(9)--(9)--(9)--(9)--(9)--|--7s--4----7----9----6~--|
--(7)--(7)--(7)--(7)--(7)--(7)--(7)--(7)--|--7s--4----7----9----6~--|
--(7)--(7)--(7)--(7)--(7)--(7)--(7)--(7)--|--5s--2----5----7----4~--|
       
-----------------------|
-----------------------|
-----------------------|
-----2----6----7-------|
-----2----6----7-------|
-----0----4----5-------|

Bridge

--------------------------|----------------------|
--------------------------|----------------------|
--------------------------|----------------------|
--4--4-----4--------4--4--|-----4----------------|
--4--4-----4--------4--4--|-----4----------------|
--2--2-----2--------2--2--|-----2----------------|
    
--------------------------|------------------------|
--------------------------|------------------------|
--------------------------|------------------------|
--4--4-----4--------4--4--|------------------------|
--4--4-----4--------4--4--|------------------------|
--2--2-----2--------2--2--|-----------------14\----|

Solo 1

   PM   PM   PM   PM   PM   PM   PM   PM   
------------------------------------------|
------------------------------------------|
------------------------------------------|
--(4)--(4)--(4)--(4)--(4)--(4)--(4)--(4)--|  x2
--(4)--(4)--(4)--(4)--(4)--(4)--(4)--(4)--|
--(2)--(2)--(2)--(2)--(2)--(2)--(2)--(2)--|

   PM   PM   PM   PM   PM   PM   PM   PM     
------------------------------------------|
------------------------------------------|
--(7)--(7)--(7)--(7)--(7)--(7)--(7)--(7)--|
--(7)--(7)--(7)--(7)--(7)--(7)--(7)--(7)--|
--(5)--(5)--(5)--(5)--(5)--(5)--(5)--(5)--|
------------------------------------------|

   PM   PM   PM   PM   PM   PM             
--------------------------------------|
--------------------------------------|
--(7)--(7)--(7)--(7)--(7)--(7)--7\----|
--(7)--(7)--(7)--(7)--(7)--(7)--7\----|
--(5)--(5)--(5)--(5)--(5)--(5)--5\----|
--------------------------------------|

   PM   PM   PM   PM   PM   PM   PM   PM   
------------------------------------------|
------------------------------------------|
--(4)--(4)--(4)--(4)--(4)--(4)--(4)--(4)--|
--(4)--(4)--(4)--(4)--(4)--(4)--(4)--(4)--|
--(2)--(2)--(2)--(2)--(2)--(2)--(2)--(2)--|
------------------------------------------|

   PM   PM   PM   PM   PM   PM            PM   PM   PM   PM   PM   PM          
--------------------------------------|--------------------------------------|
--------------------------------------|--------------------------------------|
--(4)--(4)--(4)--(4)--(4)--(4)--4\----|--------------------------------------|
--(4)--(4)--(4)--(4)--(4)--(4)--4\----|--(4)--(4)--(4)--(4)--(4)--(4)--4\----|
--(2)--(2)--(2)--(2)--(2)--(2)--2\----|--(4)--(4)--(4)--(4)--(4)--(4)--4\----|
--------------------------------------|--(2)--(2)--(2)--(2)--(2)--(2)--2\----|

                              PM   PM   PM   PM   PM   PM   PM   PM   
--------------------------|------------------------------------------|
--------------------------|------------------------------------------|
--------------------------|------------------------------------------|
--------------------------|--(4)--(4)--(4)--(4)--(4)--(4)--(4)--(4)--|
-----2--0--0--2--2--0--0--|--(4)--(4)--(4)--(4)--(4)--(4)--(4)--(4)--|
--------------------------|--(2)--(2)--(2)--(2)--(2)--(2)--(2)--(2)--|

   PM   PM   PM   PM   PM   PM   PM   PM     
------------------------------------------|
------------------------------------------|
------------------------------------------|
--(4)--(4)--(4)--(4)--(4)--(4)--(4)--(4)--|
--(4)--(4)--(4)--(4)--(4)--(4)--(4)--(4)--|
--(2)--(2)--(2)--(2)--(2)--(2)--(2)--(2)--|

   PM   PM   PM   PM   PM   PM   PM   PM   
------------------------------------------|
------------------------------------------|
--(7)--(7)--(7)--(7)--(7)--(7)--(7)--(7)--|
--(7)--(7)--(7)--(7)--(7)--(7)--(7)--(7)--|
--(5)--(5)--(5)--(5)--(5)--(5)--(5)--(5)--|
------------------------------------------|

   PM   PM   PM   PM   PM   PM            PM   PM   PM   PM   PM   PM             
--------------------------------------|--------------------------------------|
--------------------------------------|--------------------------------------|
--(7)--(7)--(7)--(7)--(7)--(7)--7\----|--------------------------------------|
--(7)--(7)--(7)--(7)--(7)--(7)--7\----|--(5)--(5)--(5)--(5)--(5)--(5)--5\----|
--(5)--(5)--(5)--(5)--(5)--(5)--5\----|--(5)--(5)--(5)--(5)--(5)--(5)--5\----|
--------------------------------------|--(3)--(3)--(3)--(3)--(3)--(3)--3\----|

   PM   PM   PM   PM   PM   PM                                     
--------------------------------------|--------------------------|
--------------------------------------|--------------------------|
--------------------------------------|--------------------------|
--(7)--(7)--(7)--(7)--(7)--(7)--7\----|--2--2--2--2--2--2--2--2--|
--(7)--(7)--(7)--(7)--(7)--(7)--7\----|--2--2--2--2--2--2--2--2--|
--(5)--(5)--(5)--(5)--(5)--(5)--5\----|--0--0--0--0--0--0--0--0--|

--------------------------|
--------------------------|
--------------------------|
--4--4--4--4--5--5--5--5--|
--4--4--4--4--5--5--5--5--|
--2--2--2--2--3--3--3--3--|

Bridge

--------------------------|----------------------|
--------------------------|----------------------|
--------------------------|----------------------|
--4--4-----4--------4--4--|-----5----------------|
--4--4-----4--------4--4--|-----5----------------|
--2--2-----2--------2--2--|-----3----------------|

--------------------------|----------------------|--------------------------|
--------------------------|----------------------|--------------------------|
--------------------------|----------------------|--------------------------|
--7--7-----7--------7--7--|-----5----------------|--4--4-----4--------4--4--|
--7--7-----7--------7--7--|-----5----------------|--4--4-----4--------4--4--|
--5--5-----5--------5--5--|-----3----------------|--2--2-----2--------2--2--|

-------------------------|---------------------------|------------------------|
-------------------------|---------------------------|------------------------|
-------------------------|---------------------------|------------------------|
-----5-------5--5-----7--|-----7-----9----11-----12--|-----11----9----7-------|
-----5-------5--5-----7--|-----7-----9----11-----12--|-----11----9----7-------|
-----3-------3--3-----5--|-----5-----7-----9-----10--|------9----7----5-------|

Solo 2

   PM   PM   PM   PM   PM   PM   PM   PM     
------------------------------------------|
------------------------------------------|
------------------------------------------| Play x 2
--(4)--(4)--(4)--(4)--(4)--(4)--(4)--(4)--|
--(4)--(4)--(4)--(4)--(4)--(4)--(4)--(4)--|
--(2)--(2)--(2)--(2)--(2)--(2)--(2)--(2)--|

   PM   PM   PM   PM   PM   PM   PM   PM   
------------------------------------------|
------------------------------------------|
--(7)--(7)--(7)--(7)--(7)--(7)--(7)--(7)--|
--(7)--(7)--(7)--(7)--(7)--(7)--(7)--(7)--|
--(5)--(5)--(5)--(5)--(5)--(5)--(5)--(5)--|
------------------------------------------|

   PM   PM   PM   PM   PM   PM            PM   PM   PM   PM   PM   PM           
--------------------------------------|--------------------------------------|
--------------------------------------|--------------------------------------|
--(7)--(7)--(7)--(7)--(7)--(7)--7\----|--(4)--(4)--(4)--(4)--(4)--(4)--4\----|
--(7)--(7)--(7)--(7)--(7)--(7)--7\----|--(4)--(4)--(4)--(4)--(4)--(4)--4\----|
--(5)--(5)--(5)--(5)--(5)--(5)--5\----|--(2)--(2)--(2)--(2)--(2)--(2)--2\----|
--------------------------------------|--------------------------------------|

   PM   PM   PM   PM   PM   PM            PM   PM          PM   PM           
--------------------------------------|------------------------------------|
--------------------------------------|------------------------------------|
--(4)--(4)--(4)--(4)--(4)--(4)--4\----|------------------------------------|
--(4)--(4)--(4)--(4)--(4)--(4)--4\----|--(4)--(4)--x-x-x--(4)--(4)--x-x-x--|
--(2)--(2)--(2)--(2)--(2)--(2)--2\----|--(4)--(4)--x-x-x--(4)--(4)--x-x-x--|
--------------------------------------|--(2)--(2)--x-x-x--(2)--(2)--x-x-x--|

                            PM   PM   PM   PM   PM   PM   PM   PM      
------------------------|------------------------------------------|
------------------------|------------------------------------------|
------------------------|------------------------------------------|
------------------------|--(4)--(4)--(4)--(4)--(4)--(4)--(4)--(4)--|
--x--4--4--3----0-------|--(4)--(4)--(4)--(4)--(4)--(4)--(4)--(4)--|
---------------------4--|--(2)--(2)--(2)--(2)--(2)--(2)--(2)--(2)--|

   PM   PM   PM   PM   PM   PM   PM  PM   
----------------------------------------|
----------------------------------------|
----------------------------------------|
--(4)--(4)--(4)--(4)--(4)--(4)--(4)--4--|
--(4)--(4)--(4)--(4)--(4)--(4)--(4)--4--|
--(2)--(2)--(2)--(2)--(2)--(2)--(2)--2--|

   PM   PM   PM   PM   PM   PM   PM   PM     
------------------------------------------|
------------------------------------------|
--(7)--(7)--(7)--(7)--(7)--(7)--(7)--(7)--|
--(7)--(7)--(7)--(7)--(7)--(7)--(7)--(7)--|
--(5)--(5)--(5)--(5)--(5)--(5)--(5)--(5)--|
------------------------------------------|

   PM   PM   PM   PM   PM   PM   PM  PM   
----------------------------------------|
----------------------------------------|
--(7)--(7)--(7)--(7)--(7)--(7)--(7)--7--|
--(7)--(7)--(7)--(7)--(7)--(7)--(7)--7--|
--(5)--(5)--(5)--(5)--(5)--(5)--(5)--5--|
----------------------------------------|

   PM   PM   PM   PM   PM   PM   PM   PM     
------------------------------------------|
------------------------------------------|
------------------------------------------|
--(5)--(5)--(5)--(5)--(5)--(5)--(5)--(5)--|
--(5)--(5)--(5)--(5)--(5)--(5)--(5)--(5)--|
--(3)--(3)--(3)--(3)--(3)--(3)--(3)--(3)--|

   PM   PM   PM   PM   PM   PM   PM   PM                              
------------------------------------------|--------------------------|
------------------------------------------|--------------------------|
--(2)--(2)--(2)--(2)--(2)--(2)--(2)--(2)--|--------------------------|
--(2)--(2)--(2)--(2)--(2)--(2)--(2)--(2)--|--2--2--2--2--2--2--2--2--|
--(0)--(0)--(0)--(0)--(0)--(0)--(0)--(0)--|--2--2--2--2--2--2--2--2--|
------------------------------------------|--0--0--0--0--0--0--0--0--|
     
--------------------------|
--------------------------|
--------------------------|
--4--4--4--4--4--4--4--4--|
--4--4--4--4--4--4--4--4--|
--2--2--2--2--2--2--2--2--|

Bridge

--------------------------|----------------------|
--------------------------|----------------------|
--------------------------|----------------------|
--5--5-----5--------5--5--|-----5----------------|
--5--5-----5--------5--5--|-----5----------------|
--3--3-----3--------3--3--|-----3----------------|

--------------------------|---------------------------|
--------------------------|---------------------------|
--------------------------|---------------------------|
--5--5-----5--------5--5--|-----5---------------------|
--5--5-----5--------5--5--|-----5----------x-x--------|
--3--3-----3--------3--3--|-----3----------x-x-14\----|

Then play part A again 4 times

Then play part B again 1 time

Then play part C again 1 time

Then Outro:

|--------------------------|-------------------------|-------------------------|
|--------------------------|-------------------------|-------------------------|
|--------------------------|-------------------------|-------------------------|
|--4--4-----4--------4--4--|-----4-------4--4-----4--|-----4-----4-----4--4--4-|
|--4--4-----4--------4--4--|-----4-------4--4-----4--|-----4-----4-----4--4--4-|
|--2--2-----2--------2--2--|-----2-------2--2-----2--|-----2-----2-----2--2--2-|





-------------------------------------------Lead Guitar----------------------------------------




Doesn't play in the intro until 0:12

E||-------------------------|--------------------------|-------------------------|
B||----------5--5--5--------|-----5--5--5--5--5--5--5--|----------5--5--5--------|
G||-------------------------|--------------------------|-------------------------|
D||--4--4-------------4--4--|--4-----------------------|--4--4-------------4--4--|
A||-------------------------|--------------------------|-------------------------|
E||-------------------------|--------------------------|-------------------------|

Rest through part A of the rythym guitar

Part B:

------------------------|------------------------|
------------------------|------------------------|
--6--6----6-------6--6--|-----7-------4--4----4--|
--4--4----4-------4--4--|-----4-------2--2----2--|
--4--4----4-------4--4--|-----5-------2--2----2--|
------------------------|------------------------|

------------------------|-----------------------|-----------------------|
------------------------|-----------------------|-----------------------|
--------4--4----4----4--|-----------------------|-------6--6----6----7--|
--------2--2----2----2--|-----7----5----7----4--|--4----4--4----4----4--|
--------2--2----2----2--|-----7----5----7----4--|--4----4--4----4----5--|
------------------------|-----5----3----5----2--|--2--------------------|
 
-----------------------|-----------------------|-----------------------|
-----------------------|-----------------------|-----------------------|
-----6----4----6-------|-----------------------|-----------------------|
-----4----2----4-------|--7--4----7----9----6--|-----2----6----7-------|
-----4----2----4-------|--7--4----7----9----6--|-----2----6----7-------|
-----------------------|--5--2----5----7----4--|-----0----4----5-------|

Bridge
 
--------------------------|----------------------|--------------------------|
--------------------------|----------------------|--------------------------|
--------------------------|----------------------|--------------------------|
--5--5-----5--------5--5--|-----5----------------|--5--5-----5--------5--5--|
--5--5-----5--------5--5--|-----5----------------|--5--5-----5--------5--5--|
--3--3-----3--------3--3--|-----3----------------|--3--3-----3--------3--3--|
 
----------------------|
----------------------|
----------------------|
-----5----------------|
-----5----------------|
-----3----------------|

(plays while rythym is playing part A again 4 times, we'll call this part A Lead)

Part A Lead:

--------------------------|--------------------------|
--7--7--7--7--7--7--7--7--|--7--7--7--7--7--7--7--7--|
--------------------------|--------------------------|
--------------------------|--------------------------| --
--------------------------|--------------------------|  |
--------------------------|--------------------------|  |
                                                        |                      
--------------------------|--------------------------|  |--Play this 2x
--7--7--7--7--7--7--7--7--|--5--5--5--8--8--8--8--8--|  |
--------------------------|--------------------------|  |
--------------------------|--------------------------|  |
--------------------------|--------------------------| --
--------------------------|--------------------------|

---------------------------|--------------------------|
---------------------------|--------------------------|
--6--9----11~-------6--11--|-----13~-------6--6----7--|
--4--7-----9~-------4---9--|-----11~-------4--6----7--| --
--4--7-----9~-------4---9--|-----11~-------4--4----5--|  |
---------------------------|--------------------------|  |
                      					 |-- Play this 2x
--------------------------|--------------------------|   |
--------------------------|--------------------------|   |
-----6----6~----11--9--6--|--4~-------7~----7--6--4--|   |
-----4----6~-----9--7--4--|--------------------------|  --
-----4----4~-----9--7--4--|--------------------------|
--------------------------|--------------------------|

Then play part B once

then Part C:

------------------------|------------------------|
------------------------|------------------------|
------------------------|------------------------|
--7--7----7-------7--7--|-----9-------9--9----9--|
--5--5----5-------5--5--|-----7-------7--7----7--|
--5--5----5-------5--5--|-----7-------7--7----7--|
 
------------------------|-----------------------|---------------------------|
------------------------|-----------------------|---------------------------|
------------------------|-----------------------|---------------------------|
-------9--9----9----11--|-----9----7----6----7--|--7~----11--11-----9----7--|
-------7--7----7-----9--|-----7----5----4----5--|--5~----12--12----12----7--|
-------7--7----7-----9--|-----7----5----4----5--|--5~----10--10----10----5--|
 
------------------------|-------------------------|-----------------------|
------------------------|-------------------------|-----------------------|
------------------------|-------------------------|-----------------------|
-----6----7----6--4--6--|--7s--4----7----9----6~--|-----2----6----7-------|
-----7----7-------------|--7s--4----7----9----6~--|-----2----6----7-------|
-----4----5-------------|--5s--2----5----7----4~--|-----0----4----5-------|

Bridge
  
--------------------------|----------------------|--------------------------|
--------------------------|----------------------|--------------------------|
--------------------------|----------------------|--------------------------|
--4--4-----4--------4--4--|-----4----------------|--4--4-----4--------4--4--|
--4--4-----4--------4--4--|-----4----------------|--4--4-----4--------4--4--|
--2--2-----2--------2--2--|-----2----------------|--2--2-----2--------2--2--|

Solo 1

-----------------------------|-------------------------|
-----------------------------|-------------------------|
-----------------------------|-------------------------|
-------------9b11--9p-8-<>9--|--11---------------------|
-----------------------------|-----------9~------------|
-----------------------------|-------------------------|

--------------------------|---------------------------|----------------------|
--------------------------|---------------------------|----------------------|
--------------------------|---------------------------|----------------------|
------------11--9---------|--11b12--------------------|----------------9-----|
-------------------12--9--|------------------12h--14--|--9----------------9--|
--------------------------|---------------------------|----------------------|
  
----------------------------|-------------------------------|
----------------------------|-------------------------------|
----------------------------|-------------------------9pb11-|
--11----12--9-----------11--|------9~-------9p--7-----------|
--------------------12------|--12------------------9--------|
----------------------------|----------------------7--------|

-----------------------------|---------------------------|--9qb---7--9~-----------|
-----------------------9pb10r|-----9--9~-------7--10--7--|------------------------|
-r9-b11-r9-b11-r9-b11--------|---------------------------|------------------------|
-----------------------------|---------------------------|------------------------|
-----------------------------|---------------------------|------------------------|
-----------------------------|---------------------------|------------------------|

----------------------------------------------------------|
--14h--17p--14--15p--14p--12------------------------------|
------------------------------14h--18p--16--13h--14p--13--|
----------------------------------------------------------|
----------------------------------------------------------|
----------------------------------------------------------|

------------------------------------------------------|
------------------------------------------------------|
--11p--9h--13-----------------------------------------|
---------------14h--16p--11--14p--9h--10--8p--5h--10--|
------------------------------------------------------|
------------------------------------------------------|
 
-------------------------------|-----2---------------3h-5h-|
-------------------------------|--0--------5~--------------|
-------------------------------|---------------------------|
--8b10--4p-2h-4p-2-4~----7\----|---------------------------|
-------------------------------|---------------------------|
-------------------------------|---------------------------|

                                       TP           TP                          
--3--2--2~----2--3--------|--7~--------9--------|--10--------14b--------|
--------------------------|---------------------|-----------------------|
--------------------------|---------------------|-----------------------|
--------------------7\----|---------------------|-----------------------|
--------------------7\----|---------------------|-----------------------|
--------------------5\----|---------------------|-----------------------|

   W                                                                                                                        
--14~~~~----------\----|
-----------------------|
-----------------------|
-----------------------|
-----------------------|
-----------------------|

(Bridge here, but lead guitar doesn't play)

Solo 2:
                                                   PM    
------------------------|-----------------------------|
------------------------|-----------------------------|
------------------------|-----------------------------|
---------------9\-------|--/9~-------9h-10-7----------|
------------------------|-----------------------9-----|
------------------------|--------------------------9--|

-----------------------------|--------------------------------------|
-----------------------------|--------------------------------------|
-----------------------------|--------------------------------------|
-----------------------------|--------------------------------------|
--7s--9--9~-------9--9h--11--|--11s--12--12s--14--14s--16--16s--19--|
-----------------------------|--------------------------------------|

--------------------------------------------|
--------------------------------------------|
------------------------------19s--18s--19--|
---------------19s-21-21--x-x---------------|
--19s--21--21-------------------------------|
--------------------------------------------|

                            Pick slide     
------------------------------------------|
------------------------------------------|
--19----16h-18p-14h--16---------------19--|
------------------------------------------|
------------------------------------------|
----------------------------x\------------|

                          Pick slide      
-----------------------------------------|
--19s--12--15p-12-10--12-----------------|
-------------------------------------11--|
--------------------------x\-------------|
-----------------------------------------|
-----------------------------------------|

         Pick slide             Pick slide                                
----------------------------------------------|--------------------------|
-------------------------------------------7--|------9----10----12-------|
-------------------9s-11------------------11--|-----13----14----16-------|
--9--7-------------------9--7-----------------|--------------------------|
--------(9)\-------------------(9)\-----------|--------------------------|
----------------------------------------------|--------------------------|
 
-------------------------------------------|
--14p--12p-10-12p-10p-7--10p--7--10p-7p-5--|
-------------------------------------------|
-------------------------------------------|
-------------------------------------------|
-------------------------------------------|

----------------------------------------------|
----------------------------------------------|
--11p-9---------------------------------------|
--------11p-9-14p-11--------------------------|
---------------------14p-12-12-12-9-9-7-7-9-9-|
----------------------------------------------|

----------------------------------------------|
----------------------------------------------|
----------------------------------14--14--11--|
--11--14p-11h-14p-11h-12p-11h-12--------------|
----------------------------------------------|
----------------------------------------------|
  
---------------------------------------|---------------------------|
-------------------12s-14s-12----------|---------------------------|
--11s--7--14s--11--------------14s--7--|--5s--7-------9s--11-------|
---------------------------------------|---------------------------|
---------------------------------------|---------------------------|
---------------------------------------|---------------------------|
  
------------------------------|------------------------------|
------------------------------|------------------------------|
--11s--12-------12s--14-------|--14s--16-------16s--18-------|
------------------------------|------------------------------|
------------------------------|------------------------------|
------------------------------|------------------------------|

                                              W                             
--14p--12p--10h--12h-14--qbr---------------|--15~~~~------------|
------------------------------------------|--------------------|
-------------------------------9h-11h-12--|--------------------|
------------------------------------------|--------------------|
------------------------------------------|--------------------|
------------------------------------------|--------------------|
                         W                                        
-------------------|--<>15~~~~~-----------|------------\---------|
-------------------|----------------------|----------------------|
-------------------|----------------------|----------------------|
-------------------|----------------------|----------------------|
-------------------|----------------------|----------------------|
-------------------|----------------------|----------------------|

Then Play Part A Lead Once

Then Play Part B once

Then Play Part C once

then Outro:

--------------------------|-------------------------|
--------------------------|-------------------------|
--6--6-----6--------6--6--|-----6-------6--6-----6--|
--4--4-----4--------4--4--|-----4-------4--4-----4--|
--4--4-----4--------4--4--|-----4-------4--4-----4--|
--------------------------|-------------------------|
   
--------------------------||
--------------------------||
-----6-----6-----6--6--6--||
-----4-----4-----4--4--4--||
-----4-----4-----4--4--4--||
--------------------------||


Tablature Legend
----------------
x - dead note
(n) - ghost note
<> - pinch harmonic
h - hammer on
p - pull off
b - bend
br - bendRelease
pb - preBend
pbr - preBendRelease
brb - bendReleaseBend
qb - quarterbend
s - legato slide
/ -  slide into from below or out of upwards
\ -  slide into from above or out of downwards
~ - vibrato
W - wide vibrato
TP - tremolo picking

Email questions or comments to azlizard13@yahoo.com

Please give me credit if you use this tab for a video

1 comment on Grabbag

Intro Correction

Great tab to an excellent song. But there is one correction I'd like to make: the Intro. For the first measure, you actually play 1b2 and hold the bend: 1b2-2 3 times, which will go into the second measure, and then 1b3-3-3-3-3-3. And I do believe every note is picked.

E|-1b2-2-1b2-2-1b2-|-2-1b3-3-3-3-3-3-|

Also, for the fourth measure of the second part of the Intro:

E|-2b3-3-3-3-3-3-3-|

Other than that, a great tab. This version of Grabbag (from Duke Nukem Forever) is my favorite version. Anyway, just a heads up to help you out.