Login or Register to remove this ad. | Advertise Here

Days of Sadness (Dragon Quest VII) Guitar Tab

Submitted: Jan 26, 2012 by auriplane (Last updated: Jan 26, 2012)

5
Average: 5 (11 votes)
Download | Listen
Game: Dragon Quest VII
Composer(s): Koichi Sugiyama
Style: Arrangement, Fingerstyle
Series: Dragon Quest

AutoScroll: Slow | Medium | Fast
                    Dragon Quest VII - Days of Sadness
                        Composed by Koichi Sugiyama

            Arranged & tabbed by auriplane (crystal@panix.com)



Capo on 5.

    Intro

e |------------|------------|
B |----------3-|----------3-|
G |--------4---|--------4---|
D |----4-2-----|----4-2-----|
A |--2---------|--2---------|
E |0-----------|0-----------|

    Part A

e |------------|2---0-------|--------0---|-------(3)--|
B |0-----------|--------0---|----3-------|0-----------|
G |------0-----|------0-----|2-----2-----|--------0---|
D |----2---2---|----2---2---|--0-4---4-0-|------2---2-|
A |--2-------2-|--2-------2-|2-----------|--0-2-------|
E |0-----------|0-----------|------------|0-----------|

e |----2-3-2-3-|5---2-------|0-----------|------------|
B |----1-------|----0---3---|--------3---|0-----3-0---|
G |--0-----0---|--------4---|----4---4---|----0-----0-|
D |------------|--4---------|----2-------|--4---------|
A |3-----------|2-----------|--2---------|------------|
E |------------|------------|0-----------|0-----------|

    Part B

e |------------|----0---2---|2---3---7---|0-----------|
B |1-----1-----|3-----------|----0-------|------0-----|
G |----0---0---|--------2---|------0---0-|----0---0---|
D |--2-------2-|----0-4---4-|--0-----0---|--2-------2-|
A |0-----------|--0---------|------------|3-----------|
E |------------|2-----------|3-----------|------------|

e |----8-7-5---|2-----------|0-----------|------------|
B |----7-----8-|----3-------|------0-----|--------0---|
G |--5---------|----2---4---|----2---2---|------1-----|
D |4-----------|--4-----4---|--2-------2-|----2-------|
A |------------|2-----------|------------|--2---------|
E |------------|------------|0-----------|0-----------|

    Part C

e |--------0---|------------|--------0---|------------|
B |----4---1---|2---3-------|----4---1---|2---3-------|
G |----0-------|2---4---4---|----0-------|2---4---4---|
D |--2---2---2-|--4---4---4-|--2---2---2-|--4---4---4-|
A |0-----------|2-----------|0-----------|2-----------|
E |------------|------------|------------|------------|

e |------------|--------0---|2-----------|2-----------|
B |----1-------|1---3---1---|------2-----|--------4---|
G |----0---0---|------------|----3---3---|----2-------|
D |--2---2---2-|--4---4---4-|--4-------4-|--4---4-----|
A |0-----------|------------|1-----------|2-----------|
E |------------|2---2---2---|------------|------------|

    Part D

e |3---2-3-5-7-|------------|0-----0---7-|------------|
B |----0---0---|1-------1---|----3---7---|3-------0---|
G |--0---0---0-|----0-----0-|------------|----0-----0-|
D |------------|--2---2-----|--0-4-0-4---|--0---0-----|
A |------------|0-----------|------------|------------|
E |0-----------|------------|2-----------|3-----------|

e |--------0---|------------|------------|------------|
B |------------|3-1-0-------|------------|--------0-3-|
G |----0---0---|------2-0---|--------4---|2-0---0-----|
D |--2---2---2-|--0-------4-|3---4-------|----4-------|
A |3-----------|------------|2-----------|--2---------|
E |------------|2-----------|------------|0-----------|

    Part E

e |----7-5-----|------------|----3-2-0---|------------|
B |--------7-5-|3-----------|0-------0-3-|1-------1---|
G |5---5-------|----2---2---|------0---0-|----0-----0-|
D |--------5---|--4---4---4-|----0-------|--2---2-----|
A |--7---------|2-----------|--2---------|0-----------|
E |5-----------|------------|0-----------|------------|

e |------------|------------|------------|------------|
B |--------1---|0-1---------|------------|------------|
G |------2-----|----1-2-----|--------4---|2---0-------|
D |----0---0---|--------1-2-|3---4-------|----0-------|
A |--0-------0-|------------|2-----------|--2-----2---|
E |2-----------|2-----------|------------|0-----------|

    Part F
                                                  ^
e |--------8---|7-8-4-5---0-|1---2-------|--------0---|
B |------------|--------4---|----0---4---|4-------0---|
G |----5-------|------------|------------|--0-----0---|
D |------------|4-----------|------------|----4---2---|
A |------------|------------|2-----------|------2-2---|
E |2-----------|------------|------------|0-------0---|




10 comments on Days of Sadness

Hehe. My 500th tab :-)

Hehe. My 500th tab :-)

sounds fantastic as always

5

sounds fantastic as always auri- congrats on your 500 tabs too

:-D ty

:-D ty

happy 500th tabs! x)

5

happy 500th tabs! x)

This is really beautiful.

5

This is really beautiful. Congratulations on your 500th tab, Auri!

Congratulations to the most

5

Congratulations to the most prolific tabber of the site ;-)
I LOVE that tab !!!

Congrats on your 500th

5

Congrats on your 500th tab!!
It's so great to see this song come to life on guitar!

Wonderful

5

Be the 500th this tab deserves *_* I like the sound with capo 4 too

Awesome.

5

Awesome.

_@_v !

_@_v !