Login or Register to remove this ad. | Advertise Here

Skill Shop (Dragon Ball Z: Budokai) Bass/Guitar Tab

Submitted: Jan 28, 2012 by hslesperance

5
Average: 5 (2 votes)
Download | Listen
Game: Dragon Ball Z: Budokai
Composer(s): Kenji Yamamoto (DBZ)
Style: 2 or more instruments, Transcription
Series: Dragon Ball

AutoScroll: Slow | Medium | Fast
Skill Shop
Dragonball Z: Budokai
Composed by Kenji Yamamoto
Tabbed by hslesperance
1/28/12

Guitars 1 & 2 - Standard Tuning
Bass - Drop D Tuning


Guitar 1

e-------------------------------------------------------------
B-------------------------10---8---7-------7------------------
G---7-9-11----11-----------------------9----------------------
D----------------------------------------------7--------------
A-------------------------------------------------------------
E-------------------------------------------------------------

e-------------------------------------------------------------
B-------------------------10---8---7-----------10-------------
G---7-9-11----11-----------------------9---7------------------
D-------------------------------------------------------------
A-------------------------------------------------------------
E-------------------------------------------------------------

e-------------------------------------------------------------
B---7--10--8-------------10--8-----------------10---7---------
G-------------------------------------------------------7-----
D---------------9-----------------8--------7------------------
A-------------------------------------------------------------
E-------------------------------------------------------------

e-------------------------------------------------------------
B----------------------8--7-----------8--7--------------------
G------------------------------7--------------7------7-7------
D---11--------9-----------------------------------------------
A-------------------------------------------------------------
E-------------------------------------------------------------

e---------14----14----------17---15---14--------14------------
B---15-17----------------------------------17-----------------
G----------------------------------------------------14-------
D-------------------------------------------------------------
A-------------------------------------------------------------
E-------------------------------------------------------------

e---------14----14----------17---15---14-------------17-------
B---15-17----------------------------------17---15------------
G-------------------------------------------------------------
D-------------------------------------------------------------
A-------------------------------------------------------------
E-------------------------------------------------------------

e---14--17--15------------17--15-----------------17---14------
B----------------------------------------------------------15-
G-----------------16----------------15------14----------------
D-------------------------------------------------------------
A-------------------------------------------------------------
E-------------------------------------------------------------

e---------------------15--14-----------15--14-----------------
B---14-------------------------15---------------15-----15--15-
G-----------16------------------------------------------------
D-------------------------------------------------------------
A-------------------------------------------------------------
E-------------------------------------------------------------

e-------------------------------------------------------------
B-------------------------------------------------------------
G------------------9--7-----------------9--7------------------
D---7--7--9--10----------------7--10------------7----9--------
A-------------------------------------------------------------
E-------------------------------------------------------------

e-------------------------------------------------------------
B-------------------------------------------------------------
G---7----11--9-----------7----11--9---------7----6----7----9--
D---------------------9----------------9----9----7----9----11-
A-------------------------------------------------------------
E-------------------------------------------------------------




Guitar 2 - Piano

   1:13
e-------------------------------------------------------------
B--------13-----15----------13--------15----------------------
G---12------11--------11-12----12-11-------11-----------------
D-------------------------------------------------------------
A-------------------------------------------------------------
E-------------------------------------------------------------

e-------------------------------------------------------------
B--------12-----12----------12--------12----------------------
G------------------------11----11-----------------------------
D---12------14--------14----------14-------14-----------------
A-------------------------------------------------------------
E-------------------------------------------------------------

e--------10-----12----------10--------12----------------------
B---10-------------------10----10-----------------------------
G-----------13--------13----------13-------13-----------------
D-------------------------------------------------------------
A-------------------------------------------------------------
E-------------------------------------------------------------

e-------------------------------------------------------------
B-----------------------12--------14--------------------------
G---12--------14----------------------------------------------
D-------------------------------------------------------------
A-------------------------------------------------------------
E-------------------------------------------------------------




Bass

G-------------------------------------------------------------
D-------------------------------------------------------------
A-----------------------0------2--0---------------------------
D---5-5-5--4---4---2--2--------------2------------------------

G-------------------------------------------------------------
D-------------------------------------------------------------
A--------0-0-----------2-2-----------4-4-----------2-0---0----
D---0-----------0-2-----------2-4---------4-2---------------2-

G-------------------------------------------------------------
D-------------------------------------------------------------
A--------0-0-----------2-2-----------4-4--3-2------------2--0-
D---0-----------0-2-----------2-4------------------4-4--------

G--------------------------------------------------------4----
D--------------------------------------------------4-4------4-
A--------5-5----4-3-------------5----0-0---0-1-2--------------
D---5------------------5-5----5-------------------------------

G-------------------------------------------------------------
D---2------------------2-2------------------------------------
A--------2-2----1-0----------------------------------0--0-2-0-
D-------------------------------5-5----4----2-0---------------

G-------------------------------------------------------------
D-------------------------------------------------------------
A--------0-0-----------2-2-----------4-4-----------2-0---0----
D---0-----------0-2-----------2-4---------4-2---------------2-

G-------------------------------------------------------------
D-------------------------------------------------------------
A--------0-0-----------2-2-----------4-4--3-2------------2--0-
D---0-----------0-2-----------2-4------------------4-4--------

G-----------------------------------------------------4-------
D---------------------------------------------------4---4---4-
A--------5-5----4-3-------------5----0-0---0-1-2----------2---
D---5------------------5-5----5-------------------------------

G-------------------------------------------------------------
D---2------------------2-2----------------------------------0-
A--------2-2----1-0----------------------------------0-0------
D-------------------------------5-5----4----2-0---------------

G-------------------------------------------------------------
D--------2-0-------------2-0----------------------------------
A---0-------------0--------------------5-5-----------5-5----0-
D-------------------------------5-5-----------5-5-------------

G-------------------------------------------------------------
D--------4-2-----------4-2------------------------------------
A---2-----------2---------------0--0----0--0----0--0----0--0--
D-------------------------------------------------------------

1 comment on Skill Shop

woo!

5

woo!