Login or Register to remove this ad. | Advertise Here

Shine (Dragon Ball Z: Budokai Tenkaichi 3) Guitar Tab

Submitted: Aug 16, 2010 by hslesperance (Last updated: Aug 16, 2010)

0
Download | Listen
Game: Dragon Ball Z: Budokai Tenkaichi 3
Composer(s): Takanori Arima
Style: Transcription
Series: Dragon Ball

AutoScroll: Slow | Medium | Fast
Shine
Dragon Ball Z: Budokai Tenkaichi 3
Composed by Kenji Yamamoto
Tabbed by hslesperance
8/16/10

Standard Tuning


e---20--------19----------------------------------------------
B-----------------------20----------------------17------------
G---------------------------------19--------------------------
D-------------------------------------------------------------
A-------------------------------------------------------------
E-------------------------------------------------------------

e---20--------19------------------22------------24------------
B-----------------------20------------------------------------
G-------------------------------------------------------------
D-------------------------------------------------------------
A-------------------------------------------------------------
E-------------------------------------------------------------

e-------------------------------------------------------------
B---11/13--------12-------------------------------------------
G--------------------------12----------------------9----------
D------------------------------------12-----------------------
A-------------------------------------------------------------
E-------------------------------------------------------------

e------------------------------------8/10------------10/12----
B---11/13--------12-------------------------------------------
G--------------------------12---------------------------------
D-------------------------------------------------------------
A-------------------------------------------------------------
E-------------------------------------------------------------

e---11/13--------12-------------------------------------------
B--------------------------13---------------------------------
G------------------------------------12/14------------12------
D-------------------------------------------------------------
A-------------------------------------------------------------
E-------------------------------------------------------------

e-------------------------------------------------------------
B---11/13--------12-------------------------------------------
G--------------------------12----------------------9----------
D------------------------------------12-----------------------
A-------------------------------------------------------------
E-------------------------------------------------------------

e---------13----12--------------------------------------12----
B---------------------15----13----------13--------------------
G---14----------------------------15--------------14----------
D-------------------------------------------------------------
A-------------------------------------------------------------
E-------------------------------------------------------------

e---------------------12----------15----------13--12--13------
B---15----13----15----------13--------------------------------
G-------------------------------------------------------------
D-------------------------------------------------------------
A-------------------------------------------------------------
E-------------------------------------------------------------

e---12----------------------------12--------------------------
B-------------15----------13--15------------------------------
G-------------------------------------------------------------
D-------------------------------------------------------------
A-------------------------------------------------------------
E-------------------------------------------------------------

e---12------------12------------12------------12--------------
B--------15------------15------------15------------15---------
G-------------14------------14------------14------------14----
D-------------------------------------------------------------
A-------------------------------------------------------------
E-------------------------------------------------------------

e---12------------12------------12------------12/14---12------
B--------15------------15------------15-----------------------
G-------------14------------14------------14--------------14--
D-------------------------------------------------------------
A-------------------------------------------------------------
E-------------------------------------------------------------

e---12------------12------------12------------12--------------
B--------15------------15------------15------------15---14----
G-------------14------------14------------14------------------
D-------------------------------------------------------------
A-------------------------------------------------------------
E-------------------------------------------------------------

e---12------------12------------12------------12/14---12------
B--------15------------15------------15-----------------------
G-------------14------------14------------14--------------14--
D-------------------------------------------------------------
A-------------------------------------------------------------
E-------------------------------------------------------------

e-------------------------------------------------------------
B-------------------------------------------------------------
G-----------------------------------------------------14------
D---14------------12--12----------------12----------------12--
A-------------------------------------------------------------
E-------------------------------------------------------------

e---20--------19----------------------------------------------
B-----------------------20----------------------17------------
G---------------------------------19--------------------------
D-------------------------------------------------------------
A-------------------------------------------------------------
E-------------------------------------------------------------

e-------------------------------------------------------------
B-------15/17----15--------------13-13------------------------
G---12---------------12----12h14-12-12----------------12-12---
D---------------------------------------15--14-14--15---------
A-------------------------------------------------------------
E-------------------------------------------------------------

e-------------------------------------------------------------
B-------------------------------------------------------------
G-------------------------------------------------------------
D---14\12------12b14------------------------------------------
A----------15---------15----------------------12--------------
E------------------------15~----\11-10/12--15------12----10---

e-------------------------------------------------------------
B-------------------------------------------------------------
G-------------------------------------------------------------
D---------------------------------------------------10--12--10
A-----------------10-10--10h12-10h12-12/14~---10-12-----------
E---8-8----10/12----------------------------------------------

e-------------------------------------------------------------
B-------------------------------------------------------------
G----------12-------------------------------------------------
D---12/14------12h14--14-14------------------------------9----
A---------------------15-15--------14b15r--------10--12-------
E------------------------------------------10h12--------------

e-------------------------------------------------------------
B----------------------------------------12-15-12-------------
G---------------------------12~-------12----------12----------
D---10-9-10-12-10-12-10/12---------12----------------12----12-
A-------------------------------------------------------------
E-------------------------------------------------------15----

e-------------------------------------------15/17-------------
B---15-12-15-12----15/16-17-------17--------------------------
G---------------12----------14-------14-----------------------
D------------------------------14-------14--------------------
A-------------------------------------------------------------
E-------------------------------------------------------------

e---12------------12------------12------------12--------------
B--------15------------15------------15------------15---------
G-------------14------------14------------14------------14----
D-------------------------------------------------------------
A-------------------------------------------------------------
E-------------------------------------------------------------

e---12------------12------------12------------12/14---12------
B--------15------------15------------15-----------------------
G-------------14------------14------------14--------------14--
D-------------------------------------------------------------
A-------------------------------------------------------------
E-------------------------------------------------------------

e---12------------12------------12------------12--------------
B--------15------------15------------15------------15---14----
G-------------14------------14------------14------------------
D-------------------------------------------------------------
A-------------------------------------------------------------
E-------------------------------------------------------------

e---12------------12------------12------------12/14---12------
B--------15------------15------------15-----------------------
G-------------14------------14------------14--------------14--
D-------------------------------------------------------------
A-------------------------------------------------------------
E-------------------------------------------------------------

e-------------------------------------------------------------
B-------------------------------------------------------------
G---------------------------------------14\12-----------------
D---14------------12--12-----------------------12-------------
A-------------------------------------------------------------
E-------------------------------------------------------------

h - hammer on
p - pull off
/ - slide up
\ - slide down
b - bend
r - release
~ - vibrato