Login or Register to remove this ad. | Advertise Here

High and Scream (Dragon Ball Z: Budokai Tenkaichi 3) Guitar Tab

Submitted: Jun 03, 2010 by hslesperance (Last updated: Feb 20, 2011)

0
Download | Listen
Game: Dragon Ball Z: Budokai Tenkaichi 3
Composer(s): Takanori Arima
Style: Transcription
Series: Dragon Ball

AutoScroll: Slow | Medium | Fast
High and Scream
Dragon Ball Z: Budokai Tenkaichi 3
Composed by Kenji Yamamoto
Tabbed by hslesperance
5/17/10

Standard Tuning

0:14
e--------------------------------------------------------------
B---/18--17------------------/18--17--------18b20~----18--17---
G--------------18---\14-----------------18---------------------
D--------------------------------------------------------------
A--------------------------------------------------------------
E--------------------------------------------------------------

e-----------------------------------------15-15b17----15b17----
B----------------18--17----15-14-15-17-18----------------------
G---18---14----------------------------------------------------
D--------------------------------------------------------------
A--------------------------------------------------------------
E--------------------------------------------------------------

e---15p13-15~---------13-15------------------------------------
B------------------17-------17b18====17--17--14~----14--15--17-
G--------------------------------------------------------------
D--------------------------------------------------------------
A--------------------------------------------------------------
E--------------------------------------------------------------

e---15-16b17~------21--16b17rb17r---------------13--12--15-----
B----------------------------------14~----14-15----------------
G--------------------------------------------------------------
D--------------------------------------------------------------
A--------------------------------------------------------------
E--------------------------------------------------------------

e---15p13p12---------------------------------------------------
B-------------14-----------------------------------------------
G-----------------14~------------------------------------------
D--------------------------------------------------------------
A--------------------------------------------------------------
E--------------------------------------------------------------

0:56
e--------------------------------------------------------------
B---/18--17------------------/18--17-----------18b20~----18--17
G--------------18---\14----------------19--18------------------
D--------------------------------------------------------------
A--------------------------------------------------------------
E--------------------------------------------------------------

e-----------------------------------------15-15b17----15b17----
B----------------18--17----15-14-15-17-18----------------------
G---18---14----------------------------------------------------
D--------------------------------------------------------------
A--------------------------------------------------------------
E--------------------------------------------------------------

e---15p13-12~---------13--------------13--------------13-------
B------------------17----17b18r----17----17b18r----17----17b18r
G--------------------------------------------------------------
D--------------------------------------------------------------
A--------------------------------------------------------------
E--------------------------------------------------------------

e------------13-15-16b17~------21--16prb17rb17r----------------
B---14-14-17------------------------------------14~----14-15---
G--------------------------------------------------------------
D--------------------------------------------------------------
A--------------------------------------------------------------
E--------------------------------------------------------------

e---13--12--15---15p13p12--------------------------------------
B--------------------------14~---------------------------------
G--------------------------------------------------------------
D--------------------------------------------------------------
A--------------------------------------------------------------
E--------------------------------------------------------------


1:39
e--------------------------------------------------------------
B--------------------------------------------------------------
G---11b12~--------------------11b12~---------------------------
D---------------------12--11--------------------14p12h14~------
A--------------------------------------------------------------
E--------------------------------------------------------------

1:49
e--------------------------------------------------------------
B--------------------------------------------------------------
G--------------------------------------------------------------
D---10b11-11b12-12b13-13b14~--------14p12-14-------------------
A--------------------------------------------------------------
E--------------------------------------------------------------

e--------------------------------------------------------------
B---10--------------------------------------/15-15-15-15-15-15-
G-------------13--12--10---------------------------------------
D---------------------------14--12-----------------------------
A--------------------------------------------------------------
E--------------------------------------------------------------

e---------------------------------15-15-15-15-15-15-15-15-15-15
B---15-15-18-18-18-18-18-18-18-18------------------------------
G--------------------------------------------------------------
D--------------------------------------------------------------
A--------------------------------------------------------------
E--------------------------------------------------------------

e---15-15-17---------------------------------------------------
B---------------12----13-12-13-15-12b13r-----------------------
G-----------------------------------------12b13====12r---------
D------------------------------------------------------15------
A--------------------------------------------------------------
E--------------------------------------------------------------

e--------------------------------------------------------------
B--------------------------------------------------------------
G---12----12-14-12b13r----------------------------------12-14--
D------15-----------------15-12----12-12-15-12-15-12-15--------
A-------------------------------15-----------------------------
E--------------------------------------------------------------

e------------------13------------------------------------------
B---------13-15--------15----------------18b20-----------------
G---12-14--------------------------------17b19-----------------
D--------------------------------------------------------------
A--------------------------------------------------------------
E--------------------------------------------------------------

h - hammer on
p - pull off
/ - slide up
\ - slide down
b - bend
r - release
prb - prebend
= - hold bend
~ - vibrato