Login or Register to remove this ad. | Advertise Here

Heat Capacity (Dragon Ball Z: Budokai Tenkaichi 3) Guitar Tab

Submitted: Jun 03, 2010 by hslesperance (Last updated: Feb 20, 2011)

0
Download | Listen
Game: Dragon Ball Z: Budokai Tenkaichi 3
Composer(s): Takanori Arima
Style: 2 or more instruments, Transcription
Series: Dragon Ball

AutoScroll: Slow | Medium | Fast
Heat Capacity
Dragon Ball Z: Budokai Tenkaichi 3
Composed by Kenji Yamamoto
Tabbed by hslesperance
5/17/10

Guitars 1 & 2 - Standard Tuning
Guitar 3 - Drop D Tuning


Guitar 1

e---------13/15---------------------------------------------------
B-----------------18---\13----13h15----------------13-13b15r------
G---12-------------------------------------------------------12---
D-----------------------------------------------------------------
A-----------------------------------------------------------------
E-----------------------------------------------------------------

e---13/15---------------13h15--------------18-18-18-18-17-15------
B-----------18---\13----------------------------------------------
G-----------------------------------------------------------------
D-----------------------------------------------------------------
A-----------------------------------------------------------------
E-----------------------------------------------------------------

e---13h15-13-----------------------13-----------------------------
B---------------13----13h15-----------15--------13-13b15----------
G--------------------------------------------------------12-------
D-----------------------------------------------------------------
A-----------------------------------------------------------------
E-----------------------------------------------------------------

e---13/15----13-------------13h15---------------------------------
B------------------13h15------------------------------------------
G-----------------------------------------------------------------
D-----------------------------------------------------------------
A-----------------------------------------------------------------
E-----------------------------------------------------------------


Guitar 2

e---10-----10------10------------10-----10------8-----------------
B--------8-------8--------------------8-------8-------------------
G------7-------7--------------------7-------7---------------------
D-----------------------------------------------------------------
A-----------------------------------------------------------------
E-----------------------------------------------------------------


Guitar 3

e-----------------------------------------------------------------
B-----------------------------------------------------------------
G-----------------------------------------------------------------
D-----------------------------------------------------------------
A-------3-5-------3-5-------3---3-4-5-----4-3-5-------3-4-5-3-----
D-3-4-5-----0-4-5-----3-4-5---5-------0-5-------0-4-5---------0-5-

h - hammer on
p - pull off
/ - slide up
\ - slide down
b - bend
r - release