Login or Register to remove this ad. | Advertise Here

Morning Dew (Dragon Ball Z: Budokai Tenkaichi 2) Guitar Tab

Submitted: Jan 16, 2011 by hslesperance (Last updated: Aug 10, 2012)

0
Download | Listen
Game: Dragon Ball Z: Budokai Tenkaichi 2
Composer(s): Takanori Arima
Style: 2 or more instruments, Transcription
Series: Dragon Ball

AutoScroll: Slow | Medium | Fast
Morning Dew
Dragon Ball Z: Budokai Tenkaichi 2
Composed by Kenji Yamamoto
Tabbed by hslesperance
1/16/11

Standard Tuning




Guitar 1

     E E E E +H             W
||----------------------|------------------------|
||o--------4-(4)--------|------------------------|
||-----1-4--------------|------------------------|
||---2------------------|------------------------|
||o---------------------|------------------------|
||----------------------|------------------------|


   E  E E  E +H             W
|------------------------|---------------------|
|----------4-(4)---------|---------------------|
|-------4----------------|---------------------|
|--1--4------------------|---------------------|
|------------------------|---------------------|
|------------------------|---------------------|


   E E E E +H             W
|---------------------|------------------------|
|--------4-(4)--------|------------------------|
|----1-4--------------|------------------------|
|--2------------------|------------------------|
|---------------------|------------------------|
|---------------------|------------------------|


   E  E E  E +H              W
|------------------------|------------------------|
|----------4-(4)---------|------------------------|
|-------4----------------|------------------------|
|--1--4------------------|------------------------|
|------------------------|------------------------|
|------------------------|------------------------|


   E E E E +H             W
|---------------------|------------------------|
|--------2-(2)--------|------------------------|
|------2--------------|------------------------|
|----4----------------|------------------------|
|--4------------------|------------------------|
|---------------------|------------------------|


   E E E E +H            W
|---------------------|-------------------|
|--------2-(2)--------|-------------------|
|------2--------------|-------------------|
|----4----------------|-------------------|
|--4------------------|-------------------|
|---------------------|-------------------|


   E E E E +H             W
|---------------------|------------------------|
|--------2-(2)--------|------------------------|
|------1--------------|------------------------|
|----3----------------|------------------------|
|--1------------------|------------------------|
|---------------------|------------------------|


   E E E E +H            W
|--------------------|---------------------||
|--------4-(4)-------|--------------------o||
|------3-------------|---------------------||
|----5---------------|---------------------||
|--3-----------------|--------------------o||
|--------------------|---------------------||


   E E E E +H         E  E E E +H
|-----------------|---------------------|
|--------4-(4)----|----------5-(5)------|
|------3----------|--------4------------|
|----4------------|------4--------------|
|--4--------------|---2-----------------|
|-----------------|---------------------|


   E E E E +H        E E E E +H
|-----------------|-----------------|
|--------4-(4)----|------3-3-(3)----|
|------3----------|-----------------|
|----4------------|----4------------|
|--1--------------|--5--------------|
|-----------------|-----------------|


    E  E E E +H         E  E E E  E E E E
|----------0-(0)----|---------------------|
|--------0----------|---------------------|
|------1------------|--------4--------4---|
|-------------------|------5---5----5---5-|
|---4---------------|---4---------4-------|
|-------------------|---------------------|


   E E E E +E  E E E     E  E E E +E  E E E
|--------------------|-----------------------|
|--------4-(4)-------|-----------------------|
|------3-------3-----|--------1--------------|
|----4-----------4---|------2-----------5----|
|--2---------------2-|---4------------5---5--|
|--------------------|----------2-(2)--------|


   E E E E +H         E  E E E +H
|-----------------|---------------------|
|--------4-(4)----|----------5-(5)------|
|------3----------|--------4------------|
|----4------------|------4--------------|
|--4--------------|---2-----------------|
|-----------------|---------------------|


   E E E E +H        E E E E +H
|-----------------|-----------------|
|--------4-(4)----|------3-3-(3)----|
|------3----------|-----------------|
|----4------------|----4------------|
|--1--------------|--5--------------|
|-----------------|-----------------|


    E  E E E +H        E  E E E E E  E E
|----------0-(0)----|--------------------|
|--------0----------|--------------------|
|------1------------|-------4--------4---|
|-------------------|-----5---5---5----5-|
|---4---------------|--4--------4--------|
|-------------------|--------------------|


   E E E E +E  E E E     E  E E E +E  E E E
|--------------------|-----------------------|
|--------4-(4)-------|-----------------------|
|------3-------3-----|--------1--------------|
|----4-----------4---|------2-----------5----|
|--2---------------2-|---4------------5---5--|
|--------------------|----------2-(2)--------|


   W                    Q.     Q.     Q
|-------------------|----------4-----------|
|-------------------|----------------------|
|-------------------|----------------------|
|-------------------|----------------------|
|-------------------|----------------------|
|-------------------|----------------------|


   E  E E  Q    Q    E    +E   E E  Q    E  E  E
|----------6----2------|------------6-------------|
|-------2--------------|-------2------------2--4--|
|-----3--------------3-|--(3)----3-------3--------|
|--1-------------------|--------------------------|
|----------------------|--------------------------|
|----------------------|--------------------------|


   E E E E +Q     E E    Q.     Q.     E  E
|--------0-(0)--------|---------0-----------|
|------0--------------|---------------------|
|----1------------1---|----------------0----|
|--2------------------|---------------------|
|---------------------|-------------------0-|
|-------------------4-|---------------------|


   Q.       Q.      E  E     Q     E  E E E  E  E
|-----------2------------|------------2------2-----|
|-------------------4----|--------------4-------4--|
|----------------------3-|----------------3--------|
|------------------------|-------------------------|
|------------------------|-------------------------|
|------------------------|-------------------------|


   W                    W
|-------------------|---------------------|
|-------------------|---------------------|
|-------------------|---------------------|
|-------------------|---------------------|
|-------------------|---------------------|
|-------------------|---------------------|


   W                       Q     E  E +Q    Q
|----------------------|------------2-(2)---------|
|----------------------|---------2----------------|
|----------------------|--------------------------|
|----------------------|--------------------------|
|----------------------|--------------------------|
|----------------------|--------------------------|


   E E E  E +Q     E  E    E E E E +Q   E  E
|---------1-(1)---------|--------1-(1)-------|
|------1----------------|------1-------------|
|----2-------------2----|----1----------1----|
|--0------------------0-|--0-----------------|
|-----------------------|------------------1-|
|-----------------------|--------------------|


   E  E E  E +Q     Q        Q.       Q.     Q
|------------------------|-------------------------|
|----------4-(4)---------|------------4------------|
|-------4----------------|-------------------------|
|-----4------------------|-------------------------|
|--2---------------------|-------------------------|
|------------------------|-------------------------|




Guitar 2

     E E E E  E   E E E     E  E E E  Q     E  E
||--11------------------|--11--------------------|
||o--------9-----12---9-|----------9--------9-12-|
||-----9----------------|------9-----------------|
||----------------------|------------------------|
||o---------------------|------------------------|
||----------------------|------------------------|


   E  E E  E  E   E E  E    E  E E  E Q   E  E
|-11---------------------|-11------------------|
|---------11-----12---11-|---------11----11-12-|
|----11------------------|----11---------------|
|------------------------|---------------------|
|------------------------|---------------------|
|------------------------|---------------------|


   E E E E  E   E E E     E  E E E  Q     E  E
|-11------------------|--11--------------------|
|--------9-----12---9-|----------9--------9-12-|
|----9----------------|------9-----------------|
|---------------------|------------------------|
|---------------------|------------------------|
|---------------------|------------------------|


   E  E E  E  E   E E  E     E   E E  E Q   E  E
|-11---------------------|--11--------------------|
|---------11-----12---11-|-----------11----11-12--|
|----11------------------|------11----------------|
|------------------------|------------------------|
|------------------------|------------------------|
|------------------------|------------------------|


   E E E E  E   E E E     E  E E E  Q     E  E
|--9------------------|---9--------------------|
|--------7-----10---7-|----------7--------7-10-|
|----7----------------|------7-----------------|
|---------------------|------------------------|
|---------------------|------------------------|
|---------------------|------------------------|


   E E E E  E   E E E    E E E E Q  E  E
|--9------------------|--9----------------|
|--------9-----10---9-|--------9----9-10--|
|----9----------------|----9--------------|
|---------------------|-------------------|
|---------------------|-------------------|
|---------------------|-------------------|


   E E E E  E   E E E     E  E E E  Q     E  E
|--9------------------|---9--------------------|
|--------9-----11---9-|----------9--------9-11-|
|----9----------------|------9-----------------|
|---------------------|------------------------|
|---------------------|------------------------|
|---------------------|------------------------|


   E E E E  E  E E E     E  E E E Q  E E
|--8-----------------|---8-----------------||
|--------8-----9---7-|----------7----7-9--o||
|----8---------------|------8--------------||
|--------------------|---------------------||
|--------------------|--------------------o||
|--------------------|---------------------||

Rest for 16 measures


1:24

   E E E E E  E E E     E  E E E   Q  E  E
|-11----------------|--11------------------|
|--------9---12---9-|----------9------9-12-|
|----9--------------|------9---------------|
|-------------------|----------------------|
|-------------------|----------------------|
|-------------------|----------------------|


   E  E E  E E  E E  E     E   E E  E  Q    E  E
|-11-------------------|--11----------------------|
|---------11---12---11-|-----------11------11-12--|
|----11----------------|------11------------------|
|----------------------|--------------------------|
|----------------------|--------------------------|
|----------------------|--------------------------|


   E E E E  E   E E E    E  E E E   Q  E  E
|-11------------------|-11------------------|
|--------9-----12---9-|---------9------9-12-|
|----9----------------|-----9---------------|
|---------------------|---------------------|
|---------------------|---------------------|
|---------------------|---------------------|


   E   E E  E  E  E E  E     E   E E  E Q    E  E
|-11---------------------|--11---------------------|
|----------11----12---11-|-----------11-----11-12--|
|-----11-----------------|------11-----------------|
|------------------------|-------------------------|
|------------------------|-------------------------|
|------------------------|-------------------------|


   E E E E E  E E E     E  E E E  Q  E  E
|-11----------------|--11-----------------|
|--------9---12---9-|----------9-----9-12-|
|----9--------------|------9--------------|
|-------------------|---------------------|
|-------------------|---------------------|
|-------------------|---------------------|


   E  E E  E E  E E  E     E   E E  E  Q    E  E
|-11-------------------|--11----------------------|
|---------11---12---11-|-----------11------11-12--|
|----11----------------|------11------------------|
|----------------------|--------------------------|
|----------------------|--------------------------|
|----------------------|--------------------------|


   E E E  E  E   E E  E    E E E E  Q   E  E
|-11--------------------|--------------------|
|--------10-----12---10-|-12-----9------9-12-|
|----9------------------|----9---------------|
|-----------------------|--------------------|
|-----------------------|--------------------|
|-----------------------|--------------------|


   E  E E  E  E   E E  E     E   E E  E  Q   E  E
|-11---------------------|--11---------------------|
|---------11-----12---11-|-----------11-----11-12--|
|----11------------------|------11-----------------|
|------------------------|-------------------------|
|------------------------|-------------------------|
|------------------------|-------------------------|




Guitar 3

     W                     +H         E  E  Q
||--11------------------|-(11)----------11-14----|
||o---------------------|------------14----------|
||----------------------|------------------------|
||----------------------|------------------------|
||o---------------------|------------------------|
||----------------------|------------------------|


   W                        W
|-11---------------------|---------------------|
|------------------------|-11------------------|
|------------------------|---------------------|
|------------------------|---------------------|
|------------------------|---------------------|
|------------------------|---------------------|


   W                     +H         E  E  Q
|-11------------------|-(11)----------11-14----|
|---------------------|------------14----------|
|---------------------|------------------------|
|---------------------|------------------------|
|---------------------|------------------------|
|---------------------|------------------------|


   W                        +W
|-11---------------------|-(11)-------------------|
|------------------------|------------------------|
|------------------------|------------------------|
|------------------------|------------------------|
|------------------------|------------------------|
|------------------------|------------------------|


   W                     +H         E  E  Q
|---------------------|------------------12----|
|-14------------------|-(14)-------12-14-------|
|---------------------|------------------------|
|---------------------|------------------------|
|---------------------|------------------------|
|---------------------|------------------------|


   W                     W
|---------------------|-------------------|
|-12------------------|-------------------|
|---------------------|-13----------------|
|---------------------|-------------------|
|---------------------|-------------------|
|---------------------|-------------------|


   W                     +H         E  E  Q
|---------------------|------------------------|
|-11------------------|-(11)----------11-14----|
|---------------------|------------13----------|
|---------------------|------------------------|
|---------------------|------------------------|
|---------------------|------------------------|


   W                    +W
|-11-----------------|-(11)----------------||
|--------------------|--------------------o||
|--------------------|---------------------||
|--------------------|---------------------||
|--------------------|--------------------o||
|--------------------|---------------------||


   W                 +H         Q    Q
|-----------------|---------------------|
|-14--------------|-(14)-------12---11--|
|-----------------|---------------------|
|-----------------|---------------------|
|-----------------|---------------------|
|-----------------|---------------------|


   W                 W
|-----------------|-----------------|
|-----------------|-12--------------|
|-11--------------|-----------------|
|-----------------|-----------------|
|-----------------|-----------------|
|-----------------|-----------------|


   +W                  +H         H
|-------------------|---------------------|
|-(12)--------------|-(12)-------11-------|
|-------------------|---------------------|
|-------------------|---------------------|
|-------------------|---------------------|
|-------------------|---------------------|


   W                    +W
|--------------------|-----------------------|
|--------------------|-----------------------|
|-11-----------------|-(11)------------------|
|--------------------|-----------------------|
|--------------------|-----------------------|
|--------------------|-----------------------|


   W                 +H         Q    Q
|-----------------|---------------------|
|-14--------------|-(14)-------12---11--|
|-----------------|---------------------|
|-----------------|---------------------|
|-----------------|---------------------|
|-----------------|---------------------|


   W                 W
|-----------------|-----------------|
|-----------------|-12--------------|
|-11--------------|-----------------|
|-----------------|-----------------|
|-----------------|-----------------|
|-----------------|-----------------|


   +W                  H.            Q
|-------------------|--------------------|
|-(12)--------------|-11------------12---|
|-------------------|--------------------|
|-------------------|--------------------|
|-------------------|--------------------|
|-------------------|--------------------|


   W                    +W
|--------------------|-----------------------|
|-12-----------------|-(12)------------------|
|--------------------|-----------------------|
|--------------------|-----------------------|
|--------------------|-----------------------|
|--------------------|-----------------------|


   W                   +H          H
|-------------------|----------------------|
|-------------------|-------------12-------|
|-13----------------|-(13)-----------------|
|-------------------|----------------------|
|-------------------|----------------------|
|-------------------|----------------------|


   W                      +H           H
|----------------------|--------------------------|
|-11-------------------|-(11)---------------------|
|----------------------|--------------11----------|
|----------------------|--------------------------|
|----------------------|--------------------------|
|----------------------|--------------------------|


   W                     H          H
|---------------------|---------------------|
|---------------------|---------------------|
|---------------------|------------12-------|
|-14------------------|-14------------------|
|---------------------|---------------------|
|---------------------|---------------------|


   W                        +W
|------------------------|-------------------------|
|------------------------|-------------------------|
|-11---------------------|-(11)--------------------|
|------------------------|-------------------------|
|------------------------|-------------------------|
|------------------------|-------------------------|


   W                   +H         H
|-------------------|---------------------|
|-------------------|------------12-------|
|-13----------------|-(13)----------------|
|-------------------|---------------------|
|-------------------|---------------------|
|-------------------|---------------------|


   W                      +H           H
|----------------------|--------------------------|
|-11-------------------|-(11)---------------------|
|----------------------|--------------11----------|
|----------------------|--------------------------|
|----------------------|--------------------------|
|----------------------|--------------------------|


   W                       H        H
|-----------------------|--------------------|
|-----------------------|--------------------|
|-10--------------------|-10-------13--------|
|-----------------------|--------------------|
|-----------------------|--------------------|
|-----------------------|--------------------|


   W                        +W
|------------------------|-------------------------|
|------------------------|-------------------------|
|-11---------------------|-(11)--------------------|
|------------------------|-------------------------|
|------------------------|-------------------------|
|------------------------|-------------------------|




Guitar 4

Rest for 16 measures


0:55
   W                 +H         Q    Q
|-21--------------|-(21)-------19---18--|
|-----------------|---------------------|
|-----------------|---------------------|
|-----------------|---------------------|
|-----------------|---------------------|
|-----------------|---------------------|


   W                 W
|-----------------|-19--------------|
|-19--------------|-----------------|
|-----------------|-----------------|
|-----------------|-----------------|
|-----------------|-----------------|
|-----------------|-----------------|


   +W                  +H         H
|-(19)--------------|-(19)-------18-------|
|-------------------|---------------------|
|-------------------|---------------------|
|-------------------|---------------------|
|-------------------|---------------------|
|-------------------|---------------------|


   W                    +W
|--------------------|-----------------------|
|-19-----------------|-(19)------------------|
|--------------------|-----------------------|
|--------------------|-----------------------|
|--------------------|-----------------------|
|--------------------|-----------------------|


   W                 +H         Q    Q
|-21--------------|-(21)-------19---18--|
|-----------------|---------------------|
|-----------------|---------------------|
|-----------------|---------------------|
|-----------------|---------------------|
|-----------------|---------------------|


   W                 W
|-----------------|-19--------------|
|-19--------------|-----------------|
|-----------------|-----------------|
|-----------------|-----------------|
|-----------------|-----------------|
|-----------------|-----------------|


   +W                  H.            Q
|-(19)--------------|-18------------19---|
|-------------------|--------------------|
|-------------------|--------------------|
|-------------------|--------------------|
|-------------------|--------------------|
|-------------------|--------------------|


   W                    +W
|-19-----------------|-(19)------------------|
|--------------------|-----------------------|
|--------------------|-----------------------|
|--------------------|-----------------------|
|--------------------|-----------------------|
|--------------------|-----------------------|


   W           +H      H       W           +H      H
|-11--------|-(11)----14----|-11--------|-(11)----------|
|-----------|---------------|-----------|---------14----|
|-----------|---------------|-----------|---------------|
|-----------|---------------|-----------|---------------|
|-----------|---------------|-----------|---------------|
|-----------|---------------|-----------|---------------|


   W           H     H       W           +W
|-----------|-------------|-----------|---------|
|-----------|-------12----|-11--------|-(11)----|
|-13--------|-12----------|-----------|---------|
|-----------|-------------|-----------|---------|
|-----------|-------------|-----------|---------|
|-----------|-------------|-----------|---------|


   W           +H      H       W           H     H
|-11--------|-(11)----14----|-11--------|-------------|
|-----------|---------------|-----------|-14----12----|
|-----------|---------------|-----------|-------------|
|-----------|---------------|-----------|-------------|
|-----------|---------------|-----------|-------------|
|-----------|---------------|-----------|-------------|


   W          H     H       W           +W
|-----------|------------|-----------|---------|
|-10--------|-9----12----|-12--------|-(12)----|
|-----------|------------|-----------|---------|
|-----------|------------|-----------|---------|
|-----------|------------|-----------|---------|
|-----------|------------|-----------|---------|

W - whole
H - half
Q - quarter
E - 8th
S - 16th
+ - note tied to previous
. - note dotted