Login or Register to remove this ad. | Advertise Here

Gatebreaker (Dragon Ball Z: Budokai Tenkaichi 2) Guitar Tab

Submitted: Aug 12, 2010 by hslesperance (Last updated: Feb 18, 2011)

0
Download | Listen
Game: Dragon Ball Z: Budokai Tenkaichi 2
Composer(s): Takanori Arima
Style: Transcription
Series: Dragon Ball

AutoScroll: Slow | Medium | Fast
Gatebreaker
Dragon Ball Z: Budokai Tenkaichi 2
Composed by Kenji Yamamoto
Tabbed by hslesperance
7/4/09

Standard Tuning


e---7-5--5---------------5---5-8-7-5--5---------------5---5-
B----------8--8-7------5---8------------8--8-7------5---8---
G------------------4-7--------------------------4-7---------
D-----------------------------------------------------------
A-----------------------------------------------------------
E-----------------------------------------------------------

e---9-7----------------------------9-7----------------------
B-------10-9-7---7--------7-9-7-9-------10-7--7---------7---
G------------------9--6-9-----------------------9---6-9-----
D-----------------------------------------------------------
A-----------------------------------------------------------
E-----------------------------------------------------------

e--------7--9----------------9/21---------------------------
B---9-10---------------------9/21---------------------------
G-----------------------------------------------------------
D-----------------------------------------------------------
A-----------------------------------------------------------
E-----------------------------------------------------------

e---------------------------------------14/15----14--15-----
B--------------------------15-------------------------------
G---6/16--------14----16------16----------------------------
D-----------------------------------------------------------
A-----------------------------------------------------------
E-----------------------------------------------------------

e---15/17--------19---17---15---14h15p14--------------------
B-------------------------------------------7/16------------
G---------------------------------------------------16------
D-----------------------------------------------------------
A-----------------------------------------------------------
E-----------------------------------------------------------

e---------------------------------------14/15----14--15-----
B--------------------------15-------------------------------
G---6/16--------14----16------16----------------------------
D-----------------------------------------------------------
A-----------------------------------------------------------
E-----------------------------------------------------------

e---15/17--------19---17---15---14--------------------------
B-------------------------------------16--------------------
G-------------------------------------------16--------------
D-----------------------------------------------------------
A-----------------------------------------------------------
E-----------------------------------------------------------

h - hammer on
p - pull off
/ - slide up