Login or Register to remove this ad. | Advertise Here

Namek (Dragon Ball Z: Budokai 3) Guitar Tab

Submitted: Aug 12, 2010 by hslesperance (Last updated: Feb 18, 2011)

0
Download | Listen
Game: Dragon Ball Z: Budokai 3
Composer(s): Kenji Yamamoto (DBZ)
Style: Transcription
Series: Dragon Ball

AutoScroll: Slow | Medium | Fast
Namek
Dragon Ball Z: Budokai 3
Composed by Kenji Yamamoto
Tabbed by hslesperance
4/23/10

Standard Tuning


This is the best I could do. The parts I left out are too fast.

e---8---8-7--8-7----8---8-7--8-10----7---7-5--7-5----7---7-5--7-8--
B------------------------------------------------------------------
G------------------------------------------------------------------
D------------------------------------------------------------------
A------------------------------------------------------------------
E------------------------------------------------------------------

e---5---5----5------5---5----5-7----5--------4--------5--------7---
B---------8----8----------8----------------------------------------
G------------------------------------------------------------------
D------------------------------------------------------------------
A------------------------------------------------------------------
E------------------------------------------------------------------

e--------------------------------------------------------------3---
B----------5--6----5-h6p5------------------------------3--5--------
G-------5-----------------7----5----4---------------4--------------
D---/7-------------------------------------------5-----------------
A------------------------------------------------------------------
E------------------------------------------------------------------

e------------------------------------------------------------------
B---3----5-----------------------5--6----5-h6p5--------------------
G-------------5---------------5-----------------7----5----7--------
D--------------------------7---------------------------------------
A------------------------------------------------------------------
E------------------------------------------------------------------

e---------------------------------------12--13----12-h13p12--------
B-----------------------------------13----------------------15-----
G---7b9r------------------------14---------------------------------
D------------------------------------------------------------------
A------------------------------------------------------------------
E------------------------------------------------------------------

e-------------------------------15--13----12-h13p12----------------
B---13----12----------------12----------------------15----16b17----
G-----------------------12-----------------------------------------
D------------------------------------------------------------------
A------------------------------------------------------------------
E------------------------------------------------------------------

e-------------------------12--13----12-h1312-----------------------
B---13----------------13---------------------15----13----15--------
G-----------------14-----------------------------------------------
D------------------------------------------------------------------
A------------------------------------------------------------------
E------------------------------------------------------------------

e---13h15--------------------3------------3--3--3--3----5----1-----
B------------------------------------------------------------------
G------------------------------------------------------------------
D------------------------------------------------------------------
A------------------------------------------------------------------
E------------------------------------------------------------------

e---0-------------------0----1----0--------------------------5-----
B--------3------------3----------------3-3----1-1--------0-1-------
G------------------------------------------------------------------
D------------------------------------------------------------------
A------------------------------------------------------------------
E------------------------------------------------------------------

e---0--------------------------------------------------------------
B--------3----1----3-----------------------------------------------
G-----------------------------------0------------------------------
D------------------------------------------------------------------
A------------------------------------------------------------------
E------------------------------------------------------------------

e---------3--3----1-h3p1p0---------------------------4--0--11b12---
B------1----------------------3----3--------------/3---------------
G---0--------------------------------------------------------------
D------------------------------------------------------------------
A------------------------------------------------------------------
E------------------------------------------------------------------

e---10-10--8-8--------------17--------------------------------15---
B---------------------12-13-------17----15----------15-------------
G---------------------------------------------17-------------------
D------------------------------------------------------------------
A------------------------------------------------------------------
E------------------------------------------------------------------
                                           1/4
e---12--12-10-8-10b12--------------------pb10r--8------------------
B---8---8-----------------------------------------10p8h10----------
G------------------------------------------------------------------
D------------------------------------------------------------------
A------------------------------------------------------------------
E------------------------------------------------------------------

e-------------------------------------------10-8-10-8-12---15-12---
B-------------------------------8-10-8-10-8------------------------
G---8-7p5----5---------5------9------------------------------------
D---------7-----7--5-7---5-----------------------------------------
A------------------------------------------------------------------
E------------------------------------------------------------------

e---8---8-7--8-7----8---8-7--8-10----7---7-5--7-5----7---7-5--7-8--
B------------------------------------------------------------------
G------------------------------------------------------------------
D------------------------------------------------------------------
A------------------------------------------------------------------
E------------------------------------------------------------------

e---5---5----5------5---5----5-7----5--------4--------5--------7---
B---------8----8----------8----------------------------------------
G------------------------------------------------------------------
D------------------------------------------------------------------
A------------------------------------------------------------------
E------------------------------------------------------------------

e---17--------17~--------------------------------------------------
B--------------------------------17--17----------------------------
G------------------------------------19--19p17-19~------------L\7/-
D------------------------------------------------------------------
A------------------------------------------------------------------
E------------------------------------------------------------------

e---15--------12--15--------12--15~--------------------------------
B------------------------------------------------------------------
G------------------------------------------------------------------
D------------------------------------------------------------------
A------------------------------------------------------------------
E------------------------------------------------------------------

1:39
e---------------------------------8-8-8--10-10-8-10--10p8---12p8---
B---8/10--10-10--8-8-8--10-10-10--------------------------8--------
G------------------------------------------------------------------
D------------------------------------------------------------------
A------------------------------------------------------------------
E------------------------------------------------------------------

e---10p8---13p12-8-10p8-10p8---12p8---10---------------------------
B--------8-------------------8------8------------------------------
G------------------------------------------------------------------
D------------------------------------------------------------------
A------------------------------------------------------------------
E------------------------------------------------------------------
                             1:52
e----------------------------3------------3--3--3--3----5----1-----
B------------------------------------------------------------------
G------------------------------------------------------------------
D------------------------------------------------------------------
A------------------------------------------------------------------
E------------------------------------------------------------------

e---0-------------------0----1----0--------------------------5-----
B--------3------------3----------------3-3----1-1--------0-1-------
G------------------------------------------------------------------
D------------------------------------------------------------------
A------------------------------------------------------------------
E------------------------------------------------------------------

e---0--------------------------------------------------------------
B--------3----1----3-----------------------------------------------
G-----------------------------------0------------------------------
D------------------------------------------------------------------
A------------------------------------------------------------------
E------------------------------------------------------------------

e---------3--3----1-h3p1p0---------------------------4--0--11b12---
B------1----------------------3----3--------------/3---------------
G---0--------------------------------------------------------------
D------------------------------------------------------------------
A------------------------------------------------------------------
E------------------------------------------------------------------

e---10-10--8-8--------------17--------------------------------15---
B---------------------12-13-------17----15----------15-------------
G---------------------------------------------17-------------------
D------------------------------------------------------------------
A------------------------------------------------------------------
E------------------------------------------------------------------

e---14b15--------10--12--------------------------------------------
B------------------------13----------------------------------------
G------------------------------------------------------------------
D------------------------------------------------------------------
A------------------------------------------------------------------
E------------------------------------------------------------------

h - hammer on
p - pull off
/ - slide up
\ - slide down
b - bend
r - release
~ - vibrato
pb- prebend
1/4 - quarter bend