Login or Register to remove this ad. | Advertise Here

I'm Gonna Get Over ~ Towards the Horizon (Dragon Ball Z: Budokai 2) Guitar Tab

Submitted: Jan 28, 2012 by hslesperance

5
Average: 5 (1 vote)
Download | Listen
Game: Dragon Ball Z: Budokai 2
Composer(s): Kenji Yamamoto (DBZ)
Style: 2 or more instruments, Transcription
Series: Dragon Ball

AutoScroll: Slow | Medium | Fast

I'm Gonna Get Over ~ Towards the Horizon
Dragon Ball Z: Budokai 2
Composed by Kenji Yamamoto
Tabbed by hslesperance
1/27/12

Standard Tuning


Guitar 1

e---11/12--11---11/12--11---11/12----11--12--11--------------
B------------------------------------------------12--10------
G------------------------------------------------------------
D------------------------------------------------------------
A------------------------------------------------------------
E------------------------------------------------------------

e---11/12--11---12---14------11/12----11--12--11-------------
B-------------------------------------------------12---------
G------------------------------------------------------------
D------------------------------------------------------------
A------------------------------------------------------------
E------------------------------------------------------------

e---11/12--11---11/12--11---11/12----11--12--11--------------
B------------------------------------------------12--10------
G------------------------------------------------------------
D------------------------------------------------------------
A------------------------------------------------------------
E------------------------------------------------------------

e---11/12--11---12---14------12----11--12--19----------------
B------------------------------------------------------------
G------------------------------------------------------------
D------------------------------------------------------------
A------------------------------------------------------------
E------------------------------------------------------------

e------------------------------------------------------------
B------------------------------------------------------------
G---8/9--8---8/9--8---8/9----8--9--8-------------------------
D-------------------------------------9--7-------------------
A------------------------------------------------------------
E------------------------------------------------------------

e------------------------------------------------------------
B------------------------------------------------------------
G---8/9--8---9--11------8/9----8--9--8-----------------------
D---------------------------------------9--------------------
A------------------------------------------------------------
E------------------------------------------------------------

e------------------------------------------------------------
B------------------------------------------------------------
G---8/9--8---8/9--8---8/9----8--9--8-------------------------
D-------------------------------------9--7-------------------
A------------------------------------------------------------
E------------------------------------------------------------

e------------------------------------------------------------
B------------------------------------11/12-------------------
G---8/9--8---9--11------8/9----8--9--------------------------
D------------------------------------------------------------
A------------------------------------------------------------
E------------------------------------------------------------

e---11/12--11---11/12--11---11/12----11--12--11--------------
B------------------------------------------------12--10------
G------------------------------------------------------------
D------------------------------------------------------------
A------------------------------------------------------------
E------------------------------------------------------------

e---11/12--11---12---14------11/12----11--12--11-------------
B-------------------------------------------------12---------
G------------------------------------------------------------
D------------------------------------------------------------
A------------------------------------------------------------
E------------------------------------------------------------

e---11/12--11---11/12--11---11/12----11--12--11--------------
B------------------------------------------------12--10------
G------------------------------------------------------------
D------------------------------------------------------------
A------------------------------------------------------------
E------------------------------------------------------------

e---11/12--11---12---14------12----11--12--19----------------
B------------------------------------------------------------
G------------------------------------------------------------
D------------------------------------------------------------
A------------------------------------------------------------
E------------------------------------------------------------

e------------------------------------------------------------
B---12----------/12--14--14/15----14----12--14\--------------
G-------------------------------------------------14\--------
D-------------------------------------------------------14---
A------------------------------------------------------------
E------------------------------------------------------------

e------------------------------------------------------------
B------------------------------------------------------------
G---4-----------/4--6--6/7--------9------11------------------
D------------------------------------------------------------
A------------------------------------------------------------
E------------------------------------------------------------

   1:31
e-------------------------------4----9~------9h10p9p7----7---
B--------------------------5------7-------------------10-----
G----------------------4-----7-------------------------------
D------------------------7-----------------------------------
A----------------8\------------------------------------------
E---/7----2/7------------------------------------------------

e------------------------------------------------------------
B---9b10-10b12~~~--------------------------------------------
G-------------------------11----10--11----9------------------
D-----------------------------------------------12b14r--9----
A--------------------7/12---12---12---12------------------12-
E------------------------------------------------------------

e------------------------------------------17-----------17---
B-----------------------------------17b19--L---17b19~---L----
G------------------------------------------------------------
D------------------------------------------------------------
A---9---------7h8p7------------------------------------------
E-----12--10--------10-7-------------------------------------

e----------14h17----------------17b19--17pb19r---------------
B---17b19--L----17pb19------15-------------------------------
G------------------------------------------------------------
D------------------------------------------------------------
A------------------------------------------------------------
E------------------------------------------------------------

e---16-14----------17-16-14----------17-16-14----------16p14-
B---------17-15-14----------17-15-14----------17-15-14-------
G------------------------------------------------------------
D------------------------------------------------------------
A------------------------------------------------------------
E------------------------------------------------------------


Alternative for first four staffs

e------------------------------------------------------------
B---16/17--16---16/17--16---16/17----16--17--16--------------
G------------------------------------------------16----------
D----------------------------------------------------19------
A------------------------------------------------------------
E------------------------------------------------------------

e------------------------------------------------------------
B---16/17--16---17---19------16/17----16--17--16-------------
G-------------------------------------------------16---------
D------------------------------------------------------------
A------------------------------------------------------------
E------------------------------------------------------------

e------------------------------------------------------------
B---16/17--16---16/17--16---16/17----16--17--16--------------
G------------------------------------------------16----------
D----------------------------------------------------19------
A------------------------------------------------------------
E------------------------------------------------------------

e------------------------------------------19----------------
B---16/17--16---17---19------17----16--17--------------------
G------------------------------------------------------------
D------------------------------------------------------------
A------------------------------------------------------------
E------------------------------------------------------------




Guitar 2

   0:00             0:07             0:13
e------------------------------------------------------------
B------------------------------------------------------------
G------------------------------------------------------------
D---9----------------9---------------------------------------
A---9----------------9---------------------------------------
E---7----------------7---------------/5~-----4~---0----------

e------------------------------------------------------------
B------------------------------------------------------------
G---4----4----2--4------4---4-4----7--7--9--9----------------
D---4----4----2--4------4---4-4----7--7--9--9----------------
A---2----2----0--2------2---2-2----5--5--7--7----------------
E------------------------------------------------------------

e------------------------------------------------------------
B------------------------------------------------------------
G---4----4----2--4------4---4-4------------------------------
D---4----4----2--4------4---4-4------------------------------
A---2----2----0--2------2---2-2------------------------------
E----------------------------------5--5--4--0----------------

e------------------------------------------------------------
B------------------------------------------------------------
G---4----4----2--4------4---4-4----7--7--9--9----------------
D---4----4----2--4------4---4-4----7--7--9--9----------------
A---2----2----0--2------2---2-2----5--5--7--7----------------
E------------------------------------------------------------

e------------------------------------------------------------
B------------------------------------------------------------
G---4----4----2--4-------------------------------------------
D---4----4----2--4-------------------------------------------
A---2----2----0--2-------------------------------------------
E-----------------------/5~-----4~---0-----------------------

e------------------------------------------------------------
B------------------------------------------------------------
G---4----4----2--4------4---4-4----7--7--9--9----------------
D---4----4----2--4------4---4-4----7--7--9--9----------------
A---2----2----0--2------2---2-2----5--5--7--7----------------
E------------------------------------------------------------

e------------------------------------------------------------
B------------------------------------------------------------
G---4----4----2--4------4---4-4------------------------------
D---4----4----2--4------4---4-4------------------------------
A---2----2----0--2------2---2-2------------------------------
E----------------------------------5--5--4--0----------------

e------------------------------------------------------------
B------------------------------------------------------------
G---4----4----2--4------4---4-4----7--7--9--9----------------
D---4----4----2--4------4---4-4----7--7--9--9----------------
A---2----2----0--2------2---2-2----5--5--7--7----------------
E------------------------------------------------------------

e------------------------------------------------------------
B------------------------------------------------------------
G---4----4----2--4------4---4-4------------------------------
D---4----4----2--4------4---4-4------------------------------
A---2----2----0--2------2---2-2------------------------------
E----------------------------------/5~---4--0----------------

e------------------------------------------------------------
B------------------------------------------------------------
G---4----4----2--4------4---4-4----7--7--9--9----------------
D---4----4----2--4------4---4-4----7--7--9--9----------------
A---2----2----0--2------2---2-2----5--5--7--7----------------
E------------------------------------------------------------

e------------------------------------------------------------
B------------------------------------------------------------
G---4----4----2--4------4---4-4------------------------------
D---4----4----2--4------4---4-4------------------------------
A---2----2----0--2------2---2-2------------------------------
E----------------------------------5--5--4--0----------------

e------------------------------------------------------------
B------------------------------------------------------------
G---4----4----2--4------4---4-4----7--7--9--9----------------
D---4----4----2--4------4---4-4----7--7--9--9----------------
A---2----2----0--2------2---2-2----5--5--7--7----------------
E------------------------------------------------------------

e------------------------------------------------------------
B------------------------------------------------------------
G---4----4----2--4-------------------------------------------
D---4----4----2--4-------------------------------------------
A---2----2----0--2-------------------------------------------
E-----------------------/5~-----4~---0-----------------------

   1:01     1:05     1:09     1:12
e------------------------------------------------------------
B------------------------------------------------------------
G-------------------------------------------6----------------
D---5--------7--------2--------2--4--5------6----4-----------
A---5--------7--------2--------2--4--5------4----4-----------
E---3--------5--------0--------0--2--3-----------2-----------

e------------------------------------------------------------
B------------------------------------------------------------
G---4----4----2--4------4---4-4------------------------------
D---4----4----2--4------4---4-4------------------------------
A---2----2----0--2------2---2-2------------------------------
E----------------------------------2--5--5--2----------------

e------------------------------------------------------------
B------------------------------------------------------------
G---4----4----2--4------4---4-4------------------------------
D---4----4----2--4------4---4-4------------------------------
A---2----2----0--2------2---2-2------------------------------
E----------------------------------2--5--5--2----------------

e------------------------------------------------------------
B------------------------------------------------------------
G---4----4----2--4------4---4-4------------------------------
D---4----4----2--4------4---4-4------------------------------
A---2----2----0--2------2---2-2------------------------------
E----------------------------------2--5--5--2----------------

e------------------------------------------------------------
B------------------------------------------------------------
G---4----4----2--4--------------2------1--4------------------
D---4----4----2--4-----------4-----2-------------------------
A---2----2----0--2------4/5----------------------------------
E------------------------------------------------------------

e------------------------------------------------------------
B------------------------------------------------------------
G---4--4--4--4----2--4--------4--4--4--4----2--4-------------
D---4--4--4--4----2--4--------4--4--4--4----2--4-------------
A---2--2--2--2----0--2--------2--2--2--2----0--2-------------
E------------------------------------------------------------

e------------------------------------------------------------
B------------------------------------------------------------
G---4--4--4--4----2--4--------4--4--4--4----2--4-------------
D---4--4--4--4----2--4--------4--4--4--4----2--4-------------
A---2--2--2--2----0--2--------2--2--2--2----0--2-------------
E------------------------------------------------------------

e------------------------------------------------------------
B------------------------------------------------------------
G---4--4--4--4----2--4--------4--4--4--4----2--4-------------
D---4--4--4--4----2--4--------4--4--4--4----2--4-------------
A---2--2--2--2----0--2--------2--2--2--2----0--2-------------
E------------------------------------------------------------

e------------------------------------------------------------
B------------------------------------------------------------
G---4--4--4--4----2--4---------------------------------------
D---4--4--4--4----2--4---------------------------------------
A---2--2--2--2----0--2---------------------------------------
E---------------------------/5~-----4~---0-------------------

h - hammer on
p - pull off
~ - vibrato
/ - slide up
\ - slide down
b - bend
pb - pre bend
r - release

1 comment on I'm Gonna Get Over ~ Towards the Horizon

Good job on the tab! Solo's

5

Good job on the tab! Solo's gonna take a bit to learn but nonetheless great tab and song!