Login or Register to remove this ad. | Advertise Here

Nose to Tail (Dragon Ball: Raging Blast 2) Guitar Tab

Submitted: Mar 21, 2011 by hslesperance

0
Download | Listen
Game: Dragon Ball: Raging Blast 2
Composer(s): Hironobu Kageyama
Style: Transcription
Series: Dragon Ball

AutoScroll: Slow | Medium | Fast
Nose to Tail
Dragon Ball Z: Raging Blast 2
Composer Unknown
Tabbed by hslesperance
3/21/11

Standard Tuning


e----------------------------------------------------------------
B----------------------------------------------------------------
G----------------------------------------------------------------
D----------------------------------------------------------------
A----------------------------------------------------------------
E---5-8-7-5-8-7-5-5--8-7-5-8-7-5-5--8-7-5-8-7-5-5--8-7-5-8-7-5---

e----------------------------------------------------------------
B----------------------------------------------------------------
G-----------------5--------------------------7-------------------
D---5--7--5-5--7------7-5----5--7-7----5--7------7-5-------------
A----------------------------------------------------------------
E----------------------------------------------------------------

e----------------------------------------------------------------
B----------------------------------------------------------------
G--------------------5-------------------------------------------
D---5-5-7-7----5--7------7-5----5-5-7-7--------------------------
A----------------------------------------------------------------
E----------------------------------------------------------------

e----------------------------------------------------------------
B--------------------------------------------6/8-----------------
G-------5-7-7/9--7---5-7--5---------------5----------------------
D---5/7---------------------7----7-5-7-7-------------------------
A----------------------------------------------------------------
E----------------------------------------------------------------

e----------------------------------------------------------------
B----------------------------------------------------------------
G-------5-7-7/9--7---5-7--5--------------------5/7---------------
D---5/7---------------------7----7-5-7-7--7--7-------------------
A----------------------------------------------------------------
E----------------------------------------------------------------

e----------------------------------------------------------------
B--------------------------------------------6/8-----------------
G-------5-7-7/9--7---5-7--5---------------5----------------------
D---5/7---------------------7----7-5-7-7-------------------------
A----------------------------------------------------------------
E----------------------------------------------------------------

e----------------------------------------------------------------
B----------------------------------------------------------------
G-------5-7-7/9--7---5-7--5--------------------7-----------------
D---5/7---------------------7----7-5-7-7--7--7-------------------
A----------------------------------------------------------------
E----------------------------------------------------------------

e----------------------------------------------------------------
B-------8--8/10---10b12--10b12--10-8-10~-------------------------
G---10--------------------------------------9-7----7b9r----------
D-----------------------------------------------10------10-------
A----------------------------------------------------------------
E----------------------------------------------------------------

e-------------------------------------------10/12-10~------------
B-------8--8/10---10b12--10b12--10-8-10~-------------------------
G---10-----------------------------------------------------------
D----------------------------------------------------------------
A----------------------------------------------------------------
E----------------------------------------------------------------

e----------------------------------------------------------------
B---10-12-13-12-10----10--10-------------------------------------
G------------------12--------12--12---9--------------------------
D----------------------------------------------------------------
A----------------------------------------------------------------
E----------------------------------------------------------------

e--------------------------------8/10----------------------------
B---10-12-13-12-10----10-10--------------------------------------
G------------------12--------12--------12------------------------
D----------------------------------------------------------------
A----------------------------------------------------------------
E----------------------------------------------------------------

e----------------------------------------------------------------
B---10-12-13-12-10----10--10-------------------------------------
G------------------12--------12--12---9--------------------------
D----------------------------------------------------------------
A----------------------------------------------------------------
E----------------------------------------------------------------

e----------------------------------------------------------------
B--------10---12---13---13b15r--10-------------------------------
G---9-12---------------------------------------------------------
D----------------------------------------------------------------
A----------------------------------------------------------------
E----------------------------------------------------------------

e----------------------------------------------------------------
B---10-12-13-12-10----10--10-------------------------------------
G------------------12--------12--12---9--------------------------
D----------------------------------------------------------------
A----------------------------------------------------------------
E----------------------------------------------------------------

e--------------------------------8/10----------------------------
B---10-12-13-12-10----10-10--------------------------------------
G------------------12--------12--------12------------------------
D----------------------------------------------------------------
A----------------------------------------------------------------
E----------------------------------------------------------------

e----------------------------------------------------------------
B---10-12-13-12-10----10--10--------------------10~--------------
G------------------12--------12--12---9----9-12------------------
D----------------------------------------------------------------
A----------------------------------------------------------------
E----------------------------------------------------------------

e----------------------------------------------------------------
B-------10-------10--13---13-10----------------------------------
G---12-------12-----------------12-------------------------------
D----------------------------------------------------------------
A----------------------------------------------------------------
E----------------------------------------------------------------

e--------------------10---10-------------------------------------
B-------10-------10----------10----------------------------------
G---12-------12-----------------12-------------------------------
D----------------------------------------------------------------
A----------------------------------------------------------------
E----------------------------------------------------------------

e----------------------------------------------------------------
B-------10-------10--13---13-10----------------------------------
G---12-------12-----------------12-------------------------------
D----------------------------------------------------------------
A----------------------------------------------------------------
E----------------------------------------------------------------

e--------------------10---10-------------------------------------
B-------10-------10----------10----------------------------------
G---12-------12-----------------12-------------------------------
D----------------------------------------------------------------
A----------------------------------------------------------------
E----------------------------------------------------------------

I won't waste my time on 1:12-1:30 unless someone wants it tabbed

e----------------------------------------------------------------
B--------------------------------------------6/8-----------------
G-------5-7-7/9--7---5-7--5---------------5----------------------
D---5/7---------------------7----7-5-7-7-------------------------
A----------------------------------------------------------------
E----------------------------------------------------------------

e----------------------------------------------------------------
B----------------------------------------------------------------
G-------5-7-7/9--7---5-7--5--------------------5/7--------5-7----
D---5/7---------------------7----7-5-7-7--7--7----------7--------
A----------------------------------------------------------------
E----------------------------------------------------------------

b - bend
r - release
/ - slide up
~ - vibrato