Login or Register to remove this ad. | Advertise Here

Gallant (Dragon Ball: Raging Blast 2) Guitar Tab

Submitted: Mar 21, 2011 by hslesperance

0
Download | Listen
Game: Dragon Ball: Raging Blast 2
Composer(s): Hironobu Kageyama
Style: Transcription
Series: Dragon Ball

AutoScroll: Slow | Medium | Fast
Gallant
Dragon Ball Z: Raging Blast 2
Composer Unknown
Tabbed by hslesperance
3/21/11

Standard Tuning


e------------------------------------------------------------------------
B------x-x-x----x-x-x-----------x-x----x-x-x-----------------------------
G------x-x-x----x-x-x-----------x-x----x-x-x-----------------------------
D---2--x-x-x-2--x-x-x-3-3--2--2-x-x----x-x-x-----------------------------
A---0--x-x-x-0--x-x-x-1-1--0--0-x-x-3--x-x-x-5-5-------------------------
E-----------------------------------1--------3-3-------------------------

e------------8-8--10--10/12--10\-----------------------------------------
B---/10--12-----------------------12--8-8--10--10/12---------------------
G------------------------------------------------------------------------
D------------------------------------------------------------------------
A------------------------------------------------------------------------
E------------------------------------------------------------------------

e-----------8-8--10--10/12--10-------------------------------------------
B---10--12------------------------12-------------------------------------
G---------------------------------------12----9--------------------------
D------------------------------------------------------------------------
A------------------------------------------------------------------------
E------------------------------------------------------------------------

e------------8-8--10--10/12--10--15------------8-------------------------
B---/10--12--------------------------12-12--12---12-10-8-----------------
G------------------------------------------------------------------------
D------------------------------------------------------------------------
A------------------------------------------------------------------------
E------------------------------------------------------------------------

e-------------8-8--10--10/12-10----15----17b19r----15--------------------
B---8h10--12-------------------------------------------------------------
G------------------------------------------------------------------------
D------------------------------------------------------------------------
A------------------------------------------------------------------------
E------------------------------------------------------------------------

e------------------------------------------------------------------------
B---13-12-10----10--13-12-10----10--10-12-13-12-10----10--13-12-10----10-
G------------12--------------12--------------------12--------------12----
D------------------------------------------------------------------------
A------------------------------------------------------------------------
E------------------------------------------------------------------------

e---10/12--10--10-10-10--------------------10--10/12-10------------------
B-----------------------10\3/10-10-13--13--------------------------------
G-------------------------------------------------------10/12------------
D------------------------------------------------------------------------
A------------------------------------------------------------------------
E------------------------------------------------------------------------

e------------------------------------------------------------------------
B---13-12-10----10--13-12-10----10--10-12-13-12-10----10--13-12-10----10-
G------------12--------------12--------------------12--------------12----
D------------------------------------------------------------------------
A------------------------------------------------------------------------
E------------------------------------------------------------------------

e---10/12--10--10-10-10--------------------10--10/12-10----15----15/17---
B-----------------------10\3/10-10-13--13--------------------------------
G------------------------------------------------------------------------
D------------------------------------------------------------------------
A------------------------------------------------------------------------
E------------------------------------------------------------------------

e------------------------------------------------------------------------
B------------------------------------------------------------------------
G----------------------------------7-9-7---------------------------------
D---7----7-7-7-9----9-7-9-10----10---------------------------------------
A------------------------------------------------------------------------
E------------------------------------------------------------------------

e----------------------------------------------------------------------12
B---8----10----------------8----10--------------------------9----12------
G----------------7----7-----------------7----7---------9-----------------
D------------------10---------------------10------9----------------------
A------------------------------------------------------------------------
E------------------------------------------------------------------------

e---------12----------------------------------12--------15---------------
B------13-----13----15--12----15-----------13-----13--------15-12-15-----
G---14-----------14--------12-----------14-----------14------------------
D------------------------------------------------------------------------
A------------------------------------------------------------------------
E------------------------------------------------------------------------

e---------12-------------------------------------------------------------
B------13-----13----15--12----15--12----13--------13--------12-----15-12-
G---14-----------14--------12--------12-----14--------14--------12-------
D----------------------------------------------15--------15--------------
A------------------------------------------------------------------------
E------------------------------------------------------------------------

e---15-------20-17----20-17----20-------20-------20-------22-------22----
B------15----------17-------17----20-17----20-17----20-17----22-19----22-
G------------------------------------------------------------------------
D------------------------------------------------------------------------
A------------------------------------------------------------------------
E------------------------------------------------------------------------

e------22-------22-18----22-18----22-24-20----24-20----24-22-19----22-19-
B---19----22-18-------18-------18----------22-------22----------20-------
G------------------------------------------------------------------------
D------------------------------------------------------------------------
A------------------------------------------------------------------------
E------------------------------------------------------------------------

e---------19-------------------------------------------------------------
B---20-------22-------22-------------20----------------20-------------20-
G------19-------22-------22-------------19----------19-------------19----
D------------------22-------22-19-22-------------21-------------21-------
A---------------------------------------------22-------------22----------
E------------------------------------------22-------------22-------------

e---19-------19----------------------------------------------------------
B---------20-------20----------------------------------------------------
G------19-------19-------------------------------------------------------
D------------------------------------------------------------------------
A------------------------------------------------------------------------
E------------------------------------------------------------------------

e---------------------------------------13/15----------------------------
B---13-12-10-13-12-10-13-12-10-13-12-10----------------------------------
G------------------------------------------------------------------------
D------------------------------------------------------------------------
A------------------------------------------------------------------------
E------------------------------------------------------------------------

e------------------------------------------------------------------------
B---13-12-10-13-12-10-13-12-10-13-12-10----------------------------------
G---------------------------------------12-------------------------------
D------------------------------------------------------------------------
A------------------------------------------------------------------------
E------------------------------------------------------------------------

e---------------------------------------13/15----------------------------
B---13-12-10-13-12-10-13-12-10-13-12-10----------------------------------
G------------------------------------------------------------------------
D------------------------------------------------------------------------
A------------------------------------------------------------------------
E------------------------------------------------------------------------

e---15-15-15\12-12-12-12\8-8-8----8-10-----------------------------------
B------------------------------12------8---------------------------------
G------------------------------------------------------------------------
D------------------------------------------------------------------------
A------------------------------------------------------------------------
E------------------------------------------------------------------------

e---------------------------------------13/15----------------------------
B---13-12-10-13-12-10-13-12-10-13-12-10----------------------------------
G------------------------------------------------------------------------
D------------------------------------------------------------------------
A------------------------------------------------------------------------
E------------------------------------------------------------------------

e------------------------------------------------------------------------
B---13-12-10-13-12-10-13-12-10-13-12-10----------------------------------
G---------------------------------------12-------------------------------
D------------------------------------------------------------------------
A------------------------------------------------------------------------
E------------------------------------------------------------------------

e---------------------------------------13/15----------------------------
B---13-12-10-13-12-10-13-12-10-13-12-10----------------------------------
G------------------------------------------------------------------------
D------------------------------------------------------------------------
A------------------------------------------------------------------------
E------------------------------------------------------------------------

e---15-15-15\12-12-12-12\8-8-8----8--10----------------------------------
B------------------------------12----------------------------------------
G------------------------------------------------------------------------
D------------------------------------------------------------------------
A------------------------------------------------------------------------
E------------------------------------------------------------------------

e------------------------------------------------------------------------
B------------------------------------------------------------------------
G---12/14--12-12---------------------------------------------------------
D-------------------12b14--12----9--10--12--9----------------------------
A----------------------------------------------10/12--12-----------------
E------------------------------------------------------------------------

e----------------------------------------------------------10------------
B---10-12-13--12-10------------------------------10--12-13--------10-12--
G--------------------12-9-----9--12-9---9-9--12---------------11---------
D--------------------------12--------------------------------------------
A------------------------------------------------------------------------
E------------------------------------------------------------------------

e---------12--------12/15-15---13p12-----12------------------------------
B---13/15-----13-15------------------13------15--12-13--15-13--12--------
G-----------------------------------------------------------------14-12--
D------------------------------------------------------------------------
A------------------------------------------------------------------------
E------------------------------------------------------------------------

e------------------------------------------------------------------------
B------------------------------------------------------------------------
G------------------------------------------------------------------------
D---14-12----------------------------------------------------------------
A---------15-14-12-------------------------------------------------------
E------------------------------------------------------------------------

e------------------------------------------------------------------------
B------x-x-x----x-x-x---------x-x-x----x-x-x-----------------------------
G------x-x-x----x-x-x---------x-x-x----x-x-x-5-5-------------------------
D---2--x-x-x-2--x-x-x-3-3--2--x-x-x-2--x-x-x-5-5-------------------------
A---0--x-x-x-0--x-x-x-1-1--0--x-x-x-0--x-x-x-----------------------------
E------------------------------------------------------------------------

e------------------------------------------------------------------------
B------x-x-x----x-x-x-----------x-x----x-x-x-----------------------------
G------x-x-x----x-x-x-----------x-x----x-x-x-----------------------------
D---2--x-x-x-2--x-x-x-3-3--2--2-x-x----x-x-x-----------------------------
A---0--x-x-x-0--x-x-x-1-1--0--0-x-x-3--x-x-x-5-5-------------------------
E-----------------------------------1--------3-3-------------------------

e------------8-8--10--10/12--10\-----------------------------------------
B---/10--12-----------------------12--8-8--10--10/12---------------------
G------------------------------------------------------------------------
D------------------------------------------------------------------------
A------------------------------------------------------------------------
E------------------------------------------------------------------------

e-----------8-8--10--10/12--10-------------------------------------------
B---10--12------------------------12-------------------------------------
G---------------------------------------12----9--------------------------
D------------------------------------------------------------------------
A------------------------------------------------------------------------
E------------------------------------------------------------------------

e------------8-8--10--10/12--10--15------------8-------------------------
B---/10--12--------------------------12-12--12---12-10-8-----------------
G------------------------------------------------------------------------
D------------------------------------------------------------------------
A------------------------------------------------------------------------
E------------------------------------------------------------------------

e-------------8-8--10--10/12-10----15----17b19r----15--------------------
B---8h10--12-------------------------------------------------------------
G------------------------------------------------------------------------
D------------------------------------------------------------------------
A------------------------------------------------------------------------
E------------------------------------------------------------------------

h - hammer on
p - pull off
b - bend
r - release
/ - slide up
\ - slide down
x - muted note