Login or Register to remove this ad. | Advertise Here

Critical Power (Dragon Ball: Raging Blast 2) Guitar Tab

Submitted: Mar 22, 2011 by hslesperance

0
Download | Listen
Game: Dragon Ball: Raging Blast 2
Composer(s): Hironobu Kageyama
Style: Transcription
Series: Dragon Ball

AutoScroll: Slow | Medium | Fast
Critical Power
Dragon Ball Z: Raging Blast 2
Composer Unknown
Tabbed by hslesperance
3/22/11

Standard Tuning


e-------------------------------------------------------------
B-------------------------------------------------------------
G-------------------------------------------------------------
D-------------------------------------------------------------
A---5-4------------5-7---5-5-4------------7--7--5-4-----------
E---3-2------------3-5---3-3-2------------5--5--3-2-----------

e-------------------------------------------------------------
B-------------------------------------------------------------
G-------------------------------------------------------------
D-------------------------------------------------------------
A---5-7---5-5-4------------5--5-------------------------------
E---3-5---3-3-2------------3--3-------------------------------

e----------10-9-----------------------------9-----------------
B---10/12-------12-10-------12--12-10----10-------------------
G---------------------11--------------11----------------------
D-------------------------------------------------------------
A-------------------------------------------------------------
E-------------------------------------------------------------

e-------10-9-----------------------12-14-12-------------------
B---12-------12-10-------12--14-15----------------------------
G------------------11-----------------------------------------
D-------------------------------------------------------------
A-------------------------------------------------------------
E-------------------------------------------------------------

e-------10-9-----------------------------9--------------------
B---12-------12-10-------12--12-10----10----------------------
G------------------11--------------11-------------------------
D-------------------------------------------------------------
A-------------------------------------------------------------
E-------------------------------------------------------------

e-----------------------------------17-19-17------------------
B----------------------17-19--17-19---------------------------
G---16--18-19-16-18-19----------------------------------------
D-------------------------------------------------------------
A-------------------------------------------------------------
E-------------------------------------------------------------

e-------------------------------------------------------------
B-------------------------------------------------------------
G-------------------------------------------------------------
D-------------------------------------------------------------
A---5-4------------5-7---5-5-4------------7--7--5-4-----------
E---3-2------------3-5---3-3-2------------5--5--3-2-----------
                                               PB
e-------------------------------------------------------------
B-------------------------------------------19(21)-r19~~~-----
G-------------------------------------------------------------
D--------------------------------------2----------------------
A---5-7---5-5-4----------------2---2-5---5--------------------
E---3-5---3-3-2------------2-5---5----------------------------

e-------------------------------------------------------------
B-------------------------------------------------------------
G-------------------------------------------------------------
D-------------------------------------------------------------
A---5-4------------5-7---5-5-4------------7--7--5-4-----------
E---3-2------------3-5---3-3-2------------5--5--3-2-----------

e-------------------------------------------------------------
B-------------------------------------------------------------
G-------------------------------------------------------------
D------------------------------2-5----------------------------
A---5-7---5-5-4------------2-5--------------------------------
E---3-5---3-3-2-----------------------------------------------

e----------------------------------------17-17-16-------------
B------------18-18-17-----------------------------17----------
G---16-19-16----------19--------16-19-16----------------------
D-------------------------------------------------------------
A-------------------------------------------------------------
E-------------------------------------------------------------

e-------------------------------------------------------------
B------------18-18-17--------------------19----17-------------
G---16-19-16----------19--------16-19-16----19----19----------
D-------------------------------------------------------------
A-------------------------------------------------------------
E-------------------------------------------------------------

e-------------------------------------------------------------
B-------------------------------------------------------------
G-------------------------------------------------------------
D---9----7----10----9----------------9----7----10----11-------
A---7----5----8-----7----------------7----5----8-----9--------
E-------------------------------------------------------------

e-------------------------------------------------------------
B-------------------------------------------------------------
G-------------------------------------------------------------
D---9----7----10----9---------7----9----7----9----7----10-----
A---7----5----8-----7----9----5----7----5----7----5----8------
E------------------------7------------------------------------

e-------------------------------------------------------------
B-------------------------------------------------------------
G-------------------------------------------------------------
D---11----9---------------------------------------------------
A---9-----7-7-7-7-7-7-7-7-7-7-7-7-7-7-------11---11--11-------
E-------------------------------------10-10-9----9---9--------

e-------------------------------------------------------------
B-------------------------------------------------------------
G-------------------------------------------------------------
D---------------------------------------9--9------------------
A---11--12--12--11---11--11----11-11-11-7--7--11---11--11-----
E---9---10--10--9----9---9-----9--9--9--------9----9---9------

e-------------------------------------------------------------
B-------------------------------------------------------------
G-------------------------------------------------------------
D-------------------------------------------------------------
A---11--12--12--11---11--11-------7---------------------------
E---9---10--10--9----9---9-----9-----7--9---------------------

e-------------------------------------------------------------
B-------------------------------------------------------------
G-------------------------------------------------------------
D-------------------------------------------------------------
A-----8-9-----------8-9-----------8-9-----------8-9--10--9----
E-7-7------7--8-7-7------7--8-7-7------7--8-7-7-------------10

e---------13-14----------13-14----------13-14----19b22r-------
B---12-12----------12-12----------12-12-----------------------
G-------------------------------------------------------------
D-------------------------------------------------------------
A-------------------------------------------------------------
E-------------------------------------------------------------

e---17-19--------19----19----------14-------------------------
B---------18b19-----17----17\15-17-----17~--------------------
G-------------------------------------------------------------
D-------------------------------------------------------------
A-------------------------------------------------------------
E-------------------------------------------------------------

e-------------------------------------------------------------
B-------------------------------------------------------------
G---------16-19-16----------16-19-16--------19/21-------------
D---16-19----------19-16-19----------19-16--------------------
A-------------------------------------------------------------
E-------------------------------------------------------------

Skip 1:37-1:39

    1:40
e--------------------------------------10--10h11h12/14--14/17-
B-------------------------------------------------------------
G---------------------------14--16b18-------------------------
D---12--------14--------16------------------------------------
A-------14/17-----16/17---------------------------------------
E-------------------------------------------------------------

e---17/19--19--19\17-19/22--22~-22~-22~-----------------------
B-------------------------------------------------------------
G-------------------------------------------------------------
D-------------------------------------------------------------
A-------------------------------------------------------------
E-------------------------------------------------------------

e-12h14T19----T19p14-p12p10-h14T19----------------------------
B-------------------------------------------------------------
G-------------------------------------------------------------
D-------------------------------------------------------------
A-------------------------------------------------------------
E-------------------------------------------------------------

e-T19p14-p12p10-h14T19----T19p14-p12p10-h14T19----------------
B-------------------------------------------------------------
G-------------------------------------------------------------
D-------------------------------------------------------------
A-------------------------------------------------------------
E-------------------------------------------------------------

e-------------------------------------------------------------
B------------------17-----17-19--17----17---------------------
G---16-18-19-18-19-----19-----------19----19-16-16----16------
D--------------------------------------------------19---------
A-------------------------------------------------------------
E-------------------------------------------------------------

e---------------------17--------------------17----------------
B---19---------------------19-17-19------19----19-17-19-17----
G---------16----16-----------------------------------------19-
D------------19-----------------------------------------------
A-------------------------------------------------------------
E-------------------------------------------------------------

e----------10-9-----------------------------9-----------------
B---10/12-------12-10-------12--12-10----10-------------------
G---------------------11--------------11----------------------
D-------------------------------------------------------------
A-------------------------------------------------------------
E-------------------------------------------------------------

e-------10-9-----------------------12-14-12-------------------
B---12-------12-10-------12--14-15----------------------------
G------------------11-----------------------------------------
D-------------------------------------------------------------
A-------------------------------------------------------------
E-------------------------------------------------------------

e-------10-9-----------------------------9--------------------
B---12-------12-10-------12--12-10----10----------------------
G------------------11--------------11-------------------------
D-------------------------------------------------------------
A-------------------------------------------------------------
E-------------------------------------------------------------

e-----------------------------------17-19-17------------------
B----------------------17-19--17-19---------------------------
G---16--18-19-16-18-19----------------------------------------
D-------------------------------------------------------------
A-------------------------------------------------------------
E-------------------------------------------------------------

h - hammer on
/ - slide up
\ - slide down
PB - pre-bend
r - release
~ - vibrato
T - tapping