Login or Register to remove this ad. | Advertise Here

DK Island (Donkey Kong 64) Guitar Tab

Submitted: Jan 09, 2011 by A Dead Fly

5
Average: 5 (2 votes)
Download | Listen
Game: Donkey Kong 64
Composer(s): Grant Kirkhope
Style: 2 or more instruments, Arrangement
Series: Donkey Kong

AutoScroll: Slow | Medium | Fast
Artist: Eveline Fischer and Grant Kirkhope
Album: Donkey Kong 64
Song: DK's Islane Theme
Tabbed By: A Dead Fly

Song arranged for one lead (guitar one) and one rythym guitar (guitar two)
both with standard tuning

All chords are strummed down unless noted with a v above the chord

Intro 0:00 - 0:06

Guitar Two only
   C                        F        C                        F
e|-3--3-----------|-3-------5------|-3--3-----------|-3-------5------|
B|-5----5-------5-|-----5-----6----|-5----5-------5-|---5---5---6----|
G|-5------5---5---|-------------0--|-5------5---5---|-----5-------0--|
D|-5--------5-----|----------------|-5--------5-----|----------------|
A|-3--------------|----------------|-3--------------|----------------|
E|----------------|----------------|----------------|----------------|


0:06 - 0:58

Guitar One

e|-------------3--|--5------3------|--8------7------|----------------|
B|------0h1h3-----|-----------5----|-------------8--|-6~~~~~~~~------|
G|-5--------------|-------------5--|--5-------------|----------------|
D|----------------|----------------|----------------|------------5h7h|
A|-3--------------|----------------|----------------|----------------|
E|----------------|----------------|----------------|----------------|

e|----------------|--7------5------|-------4---3--1-|--0-------------|
B|-------------6--|----------------|----6-----------|----------------|
G|--------7-------|----------------|-5--------------|----------------|
D|9---------------|----------------|----------------|----------------|
A|----------------|----------------|----------------|---------3------|
E|----------------|----------------|----------------|----------------|

e|----------------|----------------|-12------10---8-|--5-------------|
B|--------------8-|-10---------8---|----------------|------6---------|
G|-5-----4h5h7----|----------9-----|-----12---------|----------5-----|
D|----------------|-------10-------|----------------|--------------7-|
A|-3--------------|----------------|----------------|----------------|
E|----------------|----------------|----------------|----------------|

e|----------7--8--|--8-------------|----------------|----------------|
B|-10-------------|------8---------|--7------6------|--5~~~~~~~~~~~~~|
G|-----10---------|----------9-----|----------------|----------------|
D|-------10-------|-------------10-|----------------|----------------|
A|----------------|----------------|----------------|----------------|
E|----------------|----------------|----------------|----------------|

e|-------------3--|--5------3------|--8-------7-----|-5--------------|
B|------0h1h3-----|-----------5----|------5------8--|-6--------------|
G|-5--------------|------5------5--|--5-5---5-------|----------------|
D|----------------|----------------|----------------|------------5h7h|
A|-3--------------|----------------|----------------|----------------|
E|----------------|----------------|----------------|----------------|

e|----------------|--7------5------|-------4---3--1-|--3-------------|
B|----6--------6--|-----------6----|----6-----------|--5-------------|
G|---------7------|-------------0--|-5--------------|----------------|
D|9---------------|----------------|----------------|---------5------|
A|----------------|----------------|----------------|---------3------|
E|----------------|----------------|----------------|----------------|

e|----------------|----------------|-12------10---8-|--5-------------|
B|--------------8-|-10----------8--|----------8-----|------6---------|
G|-5-----4h5h7----|-----------9----|-----12---------|----------5-----|
D|----------------|--------10------|-----10---------|--------------7-|
A|-3--------------|----------------|----------------|----------------|
E|----------------|-----8----------|----------------|----------------|

e|----------7--8--|--8-------------|----------------|----------------|
B|-10----------8--|--5---8---------|--7------6------|--5-------------|
G|-10--10---------|----------9-----|--7-------------|--5-------------|
D|-------10-------|-------------10-|----------------|----------------|
A|----------------|----------------|----------------|----------------|
E|----------------|----------------|----------------|----------------|

Guitar Two

   C                                 C       Em/C     F
e|-3--3-----------|-3-------3------|-8-------7------|-5-------5------|
B|-5----5-------5-|---5---5---5---5|---8-------8----|---6-------6----|
G|-5------5---5---|-----5-------5--|-----9-------9--|-----5-------5--|
D|-5--------5-----|----------------|-------10-------|-------7--------|
A|-3--------------|----------------|----------------|----------------|
E|----------------|----------------|----------------|----------------|
                                     v
   G                                 Fm               C
e|-3--3-----------|-3-------3------|-1------1-------|-3-------3------|
B|-3----3-----3---|---3-------3----|-1--------1-----|---5-------5----|
G|-4------4-----4-|-----4-------4--|-1----------1---|-----5-------5--|
D|-5--------5-----|-------5-------5|-3------------3-|-------5--------|
A|-5--------------|----------------|-3--------------|----------------|
E|-3--------------|----------------|-1--------------|----------------|

   C                                 C                F
e|-3--3-----------|-3-------3------|-0-------0------|-1--1-----------|
B|-5----5-------5-|---5---5---5----|---1-------1----|-1----1-------1-|
G|-5------5---5---|-----5-------5--|-----0-------0--|-2------2---2---|
D|-5--------5-----|---------------5|-------2--------|-3--------3-----|
A|-3--------------|----------------|----------------|-3--------------|
E|----------------|----------------|----------------|-1--------------|

                    C                F#m/5-  Fm       C
e|-1-----------1--|-3--3-----------|-5-------4------|-3-------3------|
B|---1-------1----|-5----5-------5-|---7---7---6---6|---5---5---5---5|
G|-----2---2------|-5------5---5---|-----5-------5--|-----5-------5--|
D|-------3--------|-5--------5-----|----------------|----------------|
A|----------------|-3--------------|----------------|----------------|
E|----------------|----------------|----------------|----------------|

Play those 4 sets of bars twice

0:58 - 1:23

Guitar One

e|----------------|----------------|--8-------7-----|----------------|
B|--------------8-|-10-------8-----|------8-------8-|-10-------8-----|
G|--5-------7-----|----------------|----------------|----------------|
D|--5---5---------|-----10------10-|----------------|-----10------10-|
A|----------------|----------------|----------------|----------------|
E|----------------|----------------|----------------|----------------|

e|--------------7-|---------12-----|-10-------------|--------10------|
B|----------8-----|-10-------------|---10----10-----|--8-------------|
G|--9-------------|----------------|-----10----10---|----------------|
D|----------------|----------------|-------10----10-|----------------|
A|--7-------------|-----12------12-|---------------8|----------------|
E|----------------|----------------|----------------|----------------|

e|----------------|--8-------7-----|--8-------7-----|------8---7-----|
B|--------------8-|-10-------8-----|-10---8---8---8-|-10-----------8-|
G|--5-------7-----|----------------|----------------|--7-------------|
D|--5---5---------|-----10------10-|----------------|----------------|
A|----------------|----------------|----------------|----------------|
E|----------------|----------------|----------------|----------------|

e|--------------7-|---------12-----|-10-------------|---------10-----|
B|-10-------8-----|-10-------------|---10----10-----|-8tr10----------|
G|------9---------|----------------|-----10----10---|----------------|
D|----------------|----------------|-------10----10-|----------------|
A|--7-------------|-----12------12-|---------------8|----------------|
E|----------------|----------------|----------------|----------------|

Guitar Two

   F                G                F                G
e|----------------|----------------|-1------1-------|-3------3-------|
B|-1------1-------|-3------3-------|-1--------1-----|-3--------3-----|
G|-2--------2-----|-4--------4-----|-2----------2---|-4----------4---|
D|-3----------3---|-5----------5---|-3------------3-|-5------------5-|
A|-3------------3-|-5------------5-|----------------|----------------|
E|----------------|----------------|----------------|----------------|

                    F                 F6      F       Csus2   G 
e|-3-----3-----3--|-5------5-------|-10------13-----|-3-------3------|
B|---3-----3------|-6--------6-----|-10------13-----|---3-------3----|
G|-----4-----4----|-5----------5---|-10-------------|-----5-------4--|
D|----------------|-7--------------|-10-------------|-------0--------|
A|----------------|----------------|--8-------------|----------------|
E|----------------|----------------|----------------|----------------|

Play those two sets of bars two times

1:23 - 1:49

Guitar One

e|-------------3--|--5------3--5h7h|8------7--------|-------13~------|
B|------0h1h3-----|----------------|-------------8--|-6~~~~~---------|
G|-5--------------|----------------|----------------|----------------|
D|----------------|----------------|----------------|------------5h7h|
A|----------------|----------------|----------------|----------------|
E|----------------|----------------|----------------|----------------|

e|----------------|--7------5------|-4-------3----1-|-0--------------|
B|-------------6--|----------------|----------------|---3-1----------|
G|--------7-------|----------------|----------------|-------0--------|
D|9---------------|----------------|----------------|---------2------|
A|----------------|----------------|----------------|-----------3----|
E|----------------|----------------|----------------|-------------3-0|

e|----------------|----------------|-12------10---8-|--17~~~~~~~-----|
B|--------------8-|-10-----8-------|----------------|------------6h8h|
G|-5-----4h5h7----|----------------|----------------|----------------|
D|----------------|----------------|----------------|----------------|
A|----------------|----------------|----------------|----------------|
E|----------------|----------------|----------------|----------------|

e|-------7-----8--|--8-------------|----------------|----------------|
B|10--------------|------8---------|--7------6------|--5~~~~~~~~~~~~~|
G|----------------|----------9-----|----------------|----------------|
D|----------------|-------------10-|----------------|----------------|
A|----------------|----------------|----------------|----------------|
E|----------------|----------------|----------------|----------------|

Guitar Two

   C                                                  Em/C
e|-3---3---3---3--|----------------|-3-----3-----3--|-5---5---5---5--|
B|---5---5---5---5|---5---5---5---5|---5-----5-----5|---6---6---6---6|
G|----------------|-5---5---5---5--|-----5-----5----|----------------|
D|----------------|----------------|----------------|----------------|
A|----------------|----------------|----------------|----------------|
E|----------------|----------------|----------------|----------------|
                                     
                                     Fm               C
e|----------------|-5-----5-----5--|-4-----4-----4--|-3-----3-----3--|
B|---6---6---6---6|---6-----6-----6|---6-----6-----6|---5-----5-----5|
G|-7---7---7---7--|-----7-----7----|-----4-----5----|-----5-----5----|
D|----------------|----------------|----------------|----------------|
A|----------------|----------------|----------------|----------------|
E|----------------|----------------|----------------|----------------|

                                                      Em/C
e|-3---3---3---3--|----------------|-3-----3-----3--|-5---5---5---5--|
B|---5---5---5---5|---5---5---5---5|---5-----5-----5|---6---6---6---6|
G|----------------|-5---5---5---5--|-----5-----5----|----------------|
D|----------------|----------------|----------------|----------------|
A|----------------|----------------|----------------|----------------|
E|----------------|----------------|----------------|----------------|

   F6               C                F#m/5-  Fm       C
e|10----10----10--|-8-----8-----8--|-5---5---4---4--|-3-----3-----3--|
B|--10----10----10|---8-----8-----8|---7---7---6---6|---5-----5------|
G|----10----10----|-----9-----9----|----------------|-----5-----5----|
D|----------------|----------------|----------------|----------------|
A|----------------|----------------|----------------|----------------|
E|----------------|----------------|----------------|----------------|

1:49 - End

Repeat the entire thing over once for both guitars EXCEPT the
intro with guitar 2 only, instead only play the second half of that intro, 
so the first two bars are ommited

Then once you've played it over again finish with these chords:

Guitar One
   v
   C
e|-8--------------|
B|-8--------------|
G|-9--------------|
D|-10-------------|
A|-10-------------|
E|-8--------------|

Guitar Two
   C
e|-3--------------|
B|-5--------------|
G|-5--------------|
D|-5--------------|
A|-3--------------|
E|-3--------------|

h - hammeron
tr -  trill
~~ - vibrato
v - strum up

I love this tab :)

Email questions or comments to azlizard13@yahoo.com

Please give me credit if you use this tab for a video

5 comments on DK Island

I TOTALLY LOVE THIS TAB TOO

5

I TOTALLY LOVE THIS TAB TOO !!!!!!!!!!!!!!!
Thank you soooooo much A Dead Fly !!!!!!!!!!!! :-D

:-D THANKS!!!!

:-D THANKS!!!!

Thankyou!!!! try to do Crysal Caves!

Crystal Caves would be so cool!

That's a great song! I

That's a great song! I remember reading one of your posts somewhere that said you were going to do it, so I wasn't planning on it, but if you want me to I will :)

Amazing!!

5

Amazing!!