Login or Register to remove this ad. | Advertise Here

Diddy's Jet Pack (Donkey Kong 64) Bass/Guitar Tab

Submitted: Jun 07, 2010 by RexLeRouge

5
Average: 5 (3 votes)
Download | Listen
Game: Donkey Kong 64
Composer(s): Grant Kirkhope
Style: 2 or more instruments, Tapping, Transcription
Series: Donkey Kong

AutoScroll: Slow | Medium | Fast
                               Diddy's Jet Pack                                 


There's a drum track in the .gp5


Gtr Solo
                             Segno              |---3---|   
     W                Q          H.             E   E   E   
E||------------------------||------------------------------|
B||------------------------||------------------------------|
G||------------------------||*--12b------------14--12------|
D||------------------------||*-------------------------14--|
A||------------------------||------------------------------|
E||------------------------||------------------------------|


                  |---3---|                     |---3---|   
   H.             E   E   E      H.             E   E   E   
-----------------------------|-----------------------------|
-----------------------------|-----------------------------|
--12b------------14--12------|--12b------------14--12------|
-------------------------14--|-------------------------14--|
-----------------------------|-----------------------------|
-----------------------------|-----------------------------|


                                        |---3---|   
   W                     H.             E   E   E   
---------------------|-----------------------------|
---------------------|-----------------------------|
--11b----------------|--11b------------13----------|
---------------------|---------------------14--12--|
---------------------|-----------------------------|
---------------------|-----------------------------|


                  |---3---|                     |---3---|   
   H.             E   E   E      H.             E   E   E   
-----------------------------|-----------------------------|
-----------------------------|-----------------------------|
--11b------------13----------|--11b------------13----------|
---------------------14--12--|---------------------14--12--|
-----------------------------|-----------------------------|
-----------------------------|-----------------------------|


                            T          T          T          T          
                            |---3--|   |---3--|   |---3--|   |---3--|   
   W                        E  E   E   E  E   E   E  E   E   E  E   E   
----------------------||-----------------------------------------------|
----------------------||-----------------------------------------------|
--12b----------------*||*----------------------------------------------|
---------------------*||*--12--7p--3--12--7p--3--12--7p--3--12--7p--3--|
----------------------||-----------------------------------------------|
----------------------||-----------------------------------------------|


  T         T         T         T          
  |---3--|  |---3--|  |---3--|  |---3--|   
  E  E   E  E  E   E  E  E   E  E  E   E   
------------------------------------------|
------------------------------------------|
--9--5p--2--9--5p--2--9--5p--2--9--5p--2--|
------------------------------------------|
------------------------------------------|
------------------------------------------|


  T         T         T         T          
  |---3--|  |---3--|  |---3--|  |---3--|   
  E  E   E  E  E   E  E  E   E  E  E   E   
------------------------------------------|
------------------------------------------|
--9--4p--1--9--4p--1--9--4p--1--9--4p--1--|
------------------------------------------|
------------------------------------------|
------------------------------------------|


  T         T         T         T          
  |---3--|  |---3--|  |---3--|  |---3--|   
  E  E   E  E  E   E  E  E   E  E  E   E   
------------------------------------------|
------------------------------------------|
--9--5p--2--9--5p--2--9--5p--2--9--5p--2--|
------------------------------------------|
------------------------------------------|
------------------------------------------|


   T          T          T          T          
   |---3--|   |---3--|   |---3--|   |---3--|   
   E  E   E   E  E   E   E  E   E   E  E   E   
----------------------------------------------|
----------------------------------------------|
----------------------------------------------|
--12--7p--3--12--7p--3--12--7p--3--12--7p--3--|
----------------------------------------------|
----------------------------------------------|


  T         T         T         T          
  |---3--|  |---3--|  |---3--|  |---3--|   
  E  E   E  E  E   E  E  E   E  E  E   E   
------------------------------------------|
------------------------------------------|
--9--5p--2--9--5p--2--9--5p--2--9--5p--2--|
------------------------------------------|
------------------------------------------|
------------------------------------------|


   T          T          T          T          
   |---3--|   |---3--|   |---3--|   |---3--|   
   E  E   E   E  E   E   E  E   E   E  E   E   
----------------------------------------------|
----------------------------------------------|
--10--7p--3--10--7p--3--10--7p--3--10--7p--3--|
----------------------------------------------|
----------------------------------------------|
----------------------------------------------|


  T         T         T         T                                          
  |---3--|  |---3--|  |---3--|  |---3--|                       |---3---|   
  E  E   E  E  E   E  E  E   E  E  E   E        H.             E   E   E   
-------------------------------------------||-----------------------------|
-------------------------------------------||-----------------------------|
--9--4p--1--9--4p--1--9--4p--1--9--4p--1--*||--12b------------14--12------|
------------------------------------------*||-------------------------14--|
-------------------------------------------||-----------------------------|
-------------------------------------------||-----------------------------|


                  |---3---|                     |---3---|   
   H.             E   E   E      H.             E   E   E   
-----------------------------|-----------------------------|
-----------------------------|-----------------------------|
--12b------------14--12------|--12b------------14--12------|
-------------------------14--|-------------------------14--|
-----------------------------|-----------------------------|
-----------------------------|-----------------------------|


                                        |---3---|   
   W                     H.             E   E   E   
---------------------|-----------------------------|
---------------------|-----------------------------|
--11b----------------|--11b------------13----------|
---------------------|---------------------14--12--|
---------------------|-----------------------------|
---------------------|-----------------------------|


                  |---3---|                     |---3---|   
   H.             E   E   E      H.             E   E   E   
-----------------------------|-----------------------------|
-----------------------------|-----------------------------|
--11b------------13----------|--11b------------13----------|
---------------------14--12--|---------------------14--12--|
-----------------------------|-----------------------------|
-----------------------------|-----------------------------|

                                                      da Segno
   W                    W                   W                  
---------------------|-------------------|-------------------||
---------------------|-------------------|-------------------||
--12b----------------|-------------------|-------------------||
---------------------|-------------------|-------------------||
---------------------|-------------------|-------------------||
---------------------|-------------------|-------------------||


Gtr Rythm                     Segno
     H.            H             Q    Q    Q    Q       Q    Q    Q    Q     
E||-------------------------||-----------------------|----------------------|
B||-------------------------||-----------------------|----------------------|
G||-------------------------||*----------------------|----------------------|
D||--2/------------L--------||*------------1----2----|------------1----2----|
A||--2/------------L--------||---0----3--------------|--0----3--------------|
E||--0/------------L--------||-----------------------|----------------------|


  Q    Q    Q    Q       Q    Q    Q    Q       Q    Q    Q    Q     
----------------------|----------------------|----------------------|
----------------------|----------------------|----------------------|
----------------------|----------------------|----------------------|
------------1----2----|----------------------|----------------------|
--0----3--------------|------------0----2----|------------0----2----|
----------------------|--0----4--------------|--0----4--------------|


  Q    Q    Q    Q       Q    Q    Q    Q       Q    Q    Q    Q       
----------------------|----------------------|-----------------------||
----------------------|----------------------|-----------------------||
----------------------|----------------------|----------------------*||
----------------------|----------------------|------------1----2----*||
------------0----2----|------------0----2----|--0----3---------------||
--0----4--------------|--0----4--------------|-----------------------||


   Q    Q    Q    Q       Q    Q    Q    Q       Q    Q    Q    Q     
-----------------------|----------------------|----------------------|
-----------------------|----------------------|----------------------|
*----------------------|----------------------|----------------------|
*----------------------|------------1----2----|----------------------|
------------------0----|--0----3--------------|------------0----2----|
---0----1----4---------|----------------------|--0----4--------------|


  Q    Q    Q    Q       Q    Q    Q    Q       Q    Q    Q    Q     
----------------------|----------------------|----------------------|
----------------------|----------------------|----------------------|
----------------------|----------------------|----------------------|
------------1----2----|----------------------|------------1----2----|
--0----3--------------|-----------------0----|--0----3--------------|
----------------------|--0----1----4---------|----------------------|


  Q    Q    Q    Q       Q    Q    Q    Q         Q    Q    Q    Q     
----------------------|-----------------------||----------------------|
----------------------|-----------------------||----------------------|
----------------------|----------------------*||----------------------|
-------0----2----3----|----------------------*||------------1----2----|
--1-------------------|------------0----2-----||--0----3--------------|
----------------------|--0----4---------------||----------------------|


  Q    Q    Q    Q       Q    Q    Q    Q       Q    Q    Q    Q     
----------------------|----------------------|----------------------|
----------------------|----------------------|----------------------|
----------------------|----------------------|----------------------|
------------1----2----|------------1----2----|----------------------|
--0----3--------------|--0----3--------------|------------0----2----|
----------------------|----------------------|--0----4--------------|


  Q    Q    Q    Q       Q    Q    Q    Q       Q    Q    Q    Q     
----------------------|----------------------|----------------------|
----------------------|----------------------|----------------------|
----------------------|----------------------|----------------------|
----------------------|----------------------|----------------------|
------------0----2----|------------0----2----|------------0----2----|
--0----4--------------|--0----4--------------|--0----4--------------|

                                                         da Segno
  Q    Q    Q    Q       W                    W                  
----------------------|--------------------|-------------------||
----------------------|--------------------|-------------------||
----------------------|--------------------|-------------------||
------------1----2----|--2/----------------|--L----------------||
--0----3--------------|--2/----------------|--L----------------||
----------------------|--0/----------------|--L----------------||



Basse                         Segno
     H.            H             E  E  E  E  E  E  E  E   
G||-------------------------||---------------------------|
D||-------------------------||*--------------------------|
A||-------------------------||*--------------------------|
E||--0/------------L--------||---5--5--5--5--5--5--5--5--|


  E  E  E  E  E  E  E  E     E  E  E  E  E  E  E  E   
--------------------------|--------------------------|
--------------------------|--------------------------|
--------------------------|--------------------------|
--5--5--5--5--5--5--5--5--|--5--5--5--5--5--5--5--5--|


  E  E  E  E  E  E  E  E     E  E  E  E  E  E  E  E   
--------------------------|--------------------------|
--------------------------|--------------------------|
--------------------------|--------------------------|
--0--0--0--0--0--0--0--0--|--0--0--0--0--0--0--0--0--|


  E  E  E  E  E  E  E  E     E  E  E  E  E  E  E  E   
--------------------------|--------------------------|
--------------------------|--------------------------|
--------------------------|--------------------------|
--0--0--0--0--0--0--0--0--|--0--0--0--0--0--0--0--0--|


  E  E  E  E  E  E  E  E        E  E  E  E  E  E  E  E   
---------------------------||---------------------------|
--------------------------*||*--------------------------|
--------------------------*||*--5--5--5--5--5--5--5--5--|
--5--5--5--5--5--5--5--5---||---------------------------|


  E  E  E  E  E  E  E  E     E  E  E  E  E  E  E  E   
--------------------------|--------------------------|
--------------------------|--------------------------|
--------------------------|--------------------------|
--5--5--5--5--5--5--5--5--|--0--0--0--0--0--0--0--0--|


  E  E  E  E  E  E  E  E     E  E  E  E  E  E  E  E   
--------------------------|--------------------------|
--------------------------|--------------------------|
--------------------------|--5--5--5--5--5--5--5--5--|
--5--5--5--5--5--5--5--5--|--------------------------|


  E  E  E  E  E  E  E  E     E  E  E  E  E  E  E  E   
--------------------------|--------------------------|
--------------------------|--------------------------|
--------------------------|--------------------------|
--5--5--5--5--5--5--5--5--|--6--6--6--6--6--6--6--6--|


  E  E  E  E  E  E  E  E       E  E  E  E  E  E  E  E   
---------------------------||--------------------------|
--------------------------*||--------------------------|
--------------------------*||--------------------------|
--0--0--0--0--0--0--0--0---||--5--5--5--5--5--5--5--5--|


  E  E  E  E  E  E  E  E     E  E  E  E  E  E  E  E   
--------------------------|--------------------------|
--------------------------|--------------------------|
--------------------------|--------------------------|
--5--5--5--5--5--5--5--5--|--5--5--5--5--5--5--5--5--|


  E  E  E  E  E  E  E  E     E  E  E  E  E  E  E  E   
--------------------------|--------------------------|
--------------------------|--------------------------|
--------------------------|--------------------------|
--0--0--0--0--0--0--0--0--|--0--0--0--0--0--0--0--0--|


  E  E  E  E  E  E  E  E     E  E  E  E  E  E  E  E   
--------------------------|--------------------------|
--------------------------|--------------------------|
--------------------------|--------------------------|
--0--0--0--0--0--0--0--0--|--0--0--0--0--0--0--0--0--|

                                                            da Segno
  E  E  E  E  E  E  E  E     W                    W                  
--------------------------|--------------------|-------------------||
--------------------------|--------------------|-------------------||
--------------------------|--------------------|-------------------||
--5--5--5--5--5--5--5--5--|--0/----------------|--L----------------||




Duration Legend
---------------
W - whole
H - half
Q - quarter
E - 8th
S - 16th
T - 32nd
X - 64th
. - note dotted
|-n-|  - n-tuplets


Tablature Legend
----------------
L - tied note
x - dead note
g - grace note
(n) - ghost note
> - accentuded note
NH - natural harmonic
AH - artificial harmonic
TH - tapped harmonic
SH - semi harmonic
PH - pitch harmonic
h - hammer on
p - pull off
b - bend
br - bendRelease
pb - preBend
pbr - preBendRelease
brb - bendReleaseBend
\n/ - tremolo bar dip
\n - tremolo bar dive
-/n - tremolo bar Release up
/n\ - tremolo bar inverted dip
/n - tremolo bar return
-\n - tremolo bar Release down
S - shift slide
s - legato slide
/ -  slide into from below or out of upwards
\ -  slide into from above or out of downwards
~ - vibrato
W - wide vibrato
tr - trill
TP - tremolo picking
T - tapping
S - slap
P - pop
< - fade in
^ - brush up
v - brush down