Login or Register to remove this ad. | Advertise Here

Crystal Caves (Donkey Kong 64) Guitar Tab

Submitted: Jan 14, 2011 by A Dead Fly

5
Average: 5 (1 vote)
Download | Listen
Game: Donkey Kong 64
Composer(s): Grant Kirkhope
Style: 2 or more instruments, Arrangement, Artificial harmonics, Natural harmonics
Series: Donkey Kong

AutoScroll: Slow | Medium | Fast
Artist: Eveline Fischer and Grant Kirkhope
Album: Donkey Kong 64
Song: Crystal Caves (aka Cave Melody)
Tabbed By: A Dead Fly

Song transcribed for two guitars with standard tuning

0:00 - 0:09

Guitar One
                             
e|--8-------7-----|------7---7-----|-------------12-|-12-------------|
B|----------------|--8-------8-----|-----12---------|-13-----12------|
G|----------------|----9-----9-----|-----12---------|--------12------|
D|----------------|----------------|-10-------9-----|----------------|
A|----------------|----------------|----------------|----------------|
E|----------------|----------------|----------------|----------------|

Guitar Two

    C       Em               Em/C    Em/C    Em       C       Em
e|--8-------7-----|----------------|-------7-------7|-8-------7------|
B|--8-------8-----|--8-------------|-----8-------8--|---8-------8----|
G|--9-------9-----|--9-------9-----|---9-------9----|-----9-------9--|
D|----------------|---------10-----|10-------9------|-------10------9|
A|----------------|----------------|----------------|----------------|
E|----------------|----------------|----------------|----------------|

0:09 - 1:59 (body)

Guitar One

e|-------3-5---3--|-8--------------|---------3------|-7----------12--|
B|-----6-----6---6|-----6-------6--|-----5-6---5-6-5|-----5---5------|
G|---5------------|-----------5----|---5------------|----------------|
D|-3--------------|---------3------|-2--------------|----------------|
A|----------------|----------------|----------------|----------------|
E|----------------|----------------|----------------|----------------|
                                    NH
e|-11-------------|------------11--|12*--3---3------|----------------|
B|-------6-8------|-9---8---9------|-------5---5-6-5|-3---5----------|
G|-----8------10-8|---8---8---8----|----------------|---0---0-5------|
D|----------------|----------------|----------------|----------------|
A|----------------|----------------|----------------|----------------|
E|----------------|----------------|----------------|----------------|

Play those two sets of bars 2 times then:

e|----------------|----------------|----------------|----------------|
B|----------------|----------------|---------3------|----------------|
G|-------0--------|----------------|-------0--------|----------------|
D|-----0---------0|----------------|-----0---------0|----------------|
A|---1---------1--|-3-------3------|---1---------1--|-3-------3---5--|
E|-3---------3----|-----3-------0-1|-3---------3----|-----3----------|

e|----------------|----------------|----------------|---------------8|
B|----------------|----------------|----------------|-------------8--|
G|----------------|---------------5|----------------|-----------5----|
D|----------------|-------------5--|----------------|-----5---5------|
A|-6-----5-3---5-6|-7---3-----3----|-6-----5-3---5-6|-7--------------|
E|-----------4----|---------3------|-----------4----|----------------|

e|------------6-10|-8-----------------|------------6-10|-8-------8------|
B|-8--------8-----|---8------8--------|-8--------8-----|---8-------8----|
G|--------7-------|-----9---------9-10|--------7-------|-----9-------9--|
D|----------------|-------10---10-----|----------------|-------10-------|
A|----------------|-------------------|----------------|----------------|
E|----------------|-------------------|----------------|----------------|

e|11------11------|12------12------|11----10----10-11|-12--15--15--20--|
B|--13--13--13--13|--13--13--13--13|--13----13-------|---13--13--13----|
G|----13------13--|----12------12--|----13----13-----|-----------------|
D|----------------|----------------|-----------------|-----------------|
A|----------------|----------------|-----------------|-----------------|
E|----------------|----------------|-----------------|-----------------|

e|----7-9----12---|----------------|-10-12-14-------|----9-11--------|
B|-10-------------|----8-10--------|----------------|-12-------------|
G|----------------|-10-------------|------------11--|------------8---|
D|----------------|-------------7--|----------------|----------------|
A|----------------|----------------|----------------|----------------|
E|----------------|----------------|----------------|----------------|

e|-8-10-11--------|-----------------|-10-12-14----9--|---------10--------|
B|------------9---|-------10--------|----------------|-8-10-12----8------|
G|----------------|-10-12-------10--|----------------|--------------7----|
D|----------------|---------------10|----------------|----------------5--|
A|----------------|-----------------|----------------|-------------------|
E|----------------|-----------------|----------------|-------------------|

e|------------6-10|-8-----------------|------------6-10|-8-------8------|
B|-8--------8-----|---8------8--------|-8--------8-----|---8-------8----|
G|--------7-------|-----9---------9-10|--------7-------|-----9-------9--|
D|----------------|-------10---10-----|----------------|-------10-------|
A|----------------|-------------------|----------------|----------------|
E|----------------|-------------------|----------------|----------------|

e|11------11------|12------12------|11----10----10-11|-12--15--15--20--|
B|--13--13--13--13|--13--13--13--13|--13----13-------|---13--13--13----|
G|----13------13--|----12------12--|----13----13-----|-----------------|
D|----------------|----------------|-----------------|-----------------|
A|----------------|----------------|-----------------|-----------------|
E|----------------|----------------|-----------------|-----------------|

Guitar Two

   F                F7M              C                G6
e|-8------8-------|-0------12------|---------3------|---------3------|
B|--10-----10-----|--10------10----|-------5---5----|-------5---5----|
G|----10-----10---|----10------10--|-----5-------5--|-----4-------4--|
D|------10-----10-|------10--------|---5-----------5|---5------------|
A|----------------|----------------|-3--------------|-2--------------|
E|----------------|----------------|----------------|----------------|

   G#                                C
e|----------------|-4-------4------|---------5------|---------5------|
B|-------------4--|---4-------4----|-------5---5----|-------5---5----|
G|---------5-----5|-----5-------5--|-----5-------5--|-----5-------5--|
D|-----6-----6----|-------6--------|---5-----------5|---5------------|
A|---6---6--------|----------------|-3--------------|-3--------------|
E|-4--------------|----------------|----------------|----------------|

   Am/F                              Em/C
e|-------0-------0|-------0-3------|-------0-------0|-------0-3------|
B|---1-------1----|---1-------1----|---1-0-----1-0--|---1-0-----5----|
G|-----2-------2--|-----2-------2--|-0-------0------|-0-----------4-0|
D|-3-------3------|-3--------------|----------------|----------------|
A|----------------|----------------|----------------|----------------|
E|----------------|---------------1|----------------|----------------|

   G#7M                              Em/C
e|----------------|---------3------|-------0-------0|-------0-3---7--|
B|-------4-------4|-------4---4----|---1-0-----1-0--|---1-0-----5----|
G|---5-------5----|---5---------5--|-0-------0------|-0--------------|
D|-5---6---5---6--|-5---6---------6|----------------|----------------|
A|----------------|----------------|----------------|----------------|
E|----------------|----------------|----------------|----------------|

   Gm               C                Gmadd9           C6
e|-------3-------3|-------3-------3|-------3-5------|-------3-------5|
B|---3---------3--|---5-------5----|---3-------3----|---5-------5----|
G|-----3-----3----|-----5-------5--|-----3-------3--|-----5-------5--|
D|-5-------5------|-5-------5------|-5--------------|-5-------5------|
A|----------------|----------------|----------------|----------------|
E|----------------|----------------|----------------|----------------|

   G#               C                G#      G#add9   C
e|-------4-------4|-------3-------3|-4-------6------|-------3-------3|
B|---4-------4----|---5-------5----|---4-------4----|---5-------5----|
G|-----5-------5--|-----5-------5--|-----5-------5--|-----5-------5--|
D|-6-------6------|-5-------5------|-------6-------6|-5-------5------|
A|----------------|----------------|----------------|----------------|
E|----------------|----------------|----------------|----------------|

   Gm               C                Gmadd9           C6
e|-------3-------3|-------3-------3|-------3-5------|-------3-------5|
B|---3---------3--|---5-------5----|---3-------3----|---5-------5----|
G|-----3-----3----|-----5-------5--|-----3-------3--|-----5-------5--|
D|-5-------5------|-5-------5------|-5--------------|-5-------5------|
A|----------------|----------------|----------------|----------------|
E|----------------|----------------|----------------|----------------|

   G#               C                G#      G#add9   C
e|-------4-------4|-------3-------3|-4-------6------|-------3-------3|
B|---4-------4----|---5-------5----|---4-------4----|---5-------5----|
G|-----5-------5--|-----5-------5--|-----5-------5--|-----5-------5--|
D|-6-------6------|-5-------5------|-------6-------6|-5-------5------|
A|----------------|----------------|----------------|----------------|
E|----------------|----------------|----------------|----------------|

   A                F                D                B
e|---0---0---0---0|---1---1---1---1|---2---2---2---2|---2---2---2---2|
B|-----2-------2--|-----1-------1--|-----3-------3--|-----4-------4--|
G|-2-------2------|-2-------2------|-2-------2------|-4-------4------|
D|----------------|----------------|----------------|----------------|
A|----------------|----------------|----------------|----------------|
E|----------------|----------------|----------------|----------------|

   G#               F                D                G
e|---4---4---4---4|---5---5---5---5|---5---5---5---5|---7---7---7---7|
B|-----4-------4--|-----6-------6--|-----7-------7--|-----8-------8--|
G|-5-------5------|-5-------5------|-7-------7------|-7-------7------|
D|----------------|----------------|----------------|----------------|
A|----------------|----------------|----------------|----------------|
E|----------------|----------------|----------------|----------------|

   Gm               C                Gmadd9           C6
e|-------3-------3|-------3-------3|-------3-5------|-------3-------5|
B|---3---------3--|---5-------5----|---3-------3----|---5-------5----|
G|-----3-----3----|-----5-------5--|-----3-------3--|-----5-------5--|
D|-5-------5------|-5-------5------|-5--------------|-5-------5------|
A|----------------|----------------|----------------|----------------|
E|----------------|----------------|----------------|----------------|

   G#               C                G#      G#add9   C
e|-------4-------4|-------3-------3|-4-------6------|-------3--------|
B|---4-------4----|---5-------5----|---4-------4----|---5-------5----|
G|-----5-------5--|-----5-------5--|-----5-------5--|-----5-------5--|
D|-6-------6------|-5-------5------|-------6-------6|-5-------5------|
A|----------------|----------------|----------------|----------------|
E|----------------|----------------|----------------|----------------|


1:59 - 2:04

Guitar One
                       AH     AH
e|-8-7---------------|-8*-------------|
B|-----8-------------|--------8*------|
G|-------9-----------|----------------|
D|---------10-9------|----------------|
A|--------------10-7-|----------------|
E|-------------------|----------------|

Guitar Two

    C                C
e|--8-------------|----------------|
B|--8-------------|----------------|
G|--9-------------|--5-------------|
D|-10-------------|--5-------------|
A|----------------|----------------|
E|----------------|----------------|


2:04 - End

Then just repeat the entire body from 0:09 - 1:59 over again and end
with these chords:

Guitar One

   C
   v
e|-8--------------|
B|-8--------------|
G|-9--------------|
D|-10-------------|
A|-10-------------|
E|-8--------------|

Guitar Two
   
   Em
   v
e|-7--------------|
B|-8--------------|
G|-9--------------|
D|-9--------------|
A|-7--------------|
E|-7--------------|

If you want or if you have a longer version of the song just repeat the 
second intro (the one from 1:59 - 2:04) and the body over as many times as
needed.

v  - Upstroke
NH - Natural Harmonic
AH - Artificial Harmonic

Email questions or comments to azlizard13@yahoo.com
Please give me credit if you use this tab for a video.

4 comments on Crystal Caves

Pure Epicness dude! and it sounds beautiful! thanks!

5

Pure Epicness dude! and it sounds beautiful! thanks!

Glad you like :D

Glad you like :D

Even though the Artificial

5

Even though the Artificial Harmonic may be a little odd considering my nylon only has 19 frets, but it does work really well and I love that you did that to get that damn high pitch bell sound

You can do an artificial

You can do an artificial harmonic past the last fret :-)