Login or Register to remove this ad. | Advertise Here

L's Theme B (Death Note) Bass/Guitar Tab

Submitted: Oct 19, 2010 by hslesperance (Last updated: Feb 07, 2014)

4.833335
Average: 4.8 (6 votes)
Download | Listen
Game: Death Note
Composer(s): Hideki Taniuchi, Yoshihisa Hirano
Style: 2 or more instruments, Transcription

AutoScroll: Slow | Medium | Fast
L's Theme B
Death Note
Composed by Hideki Taniuchi
Tabbed by hslesperance
10/19/10

Standard Tuning


Guitar 1

Repeat throughout song
e-------------------------7--------------------------
B---8------10------8--------8------------------------
G-----9-------9------9-------------------------------
D----------------------------------------------------
A----------------------------------------------------
E----------------------------------------------------

Repeat too many times for me to count
e---------------17-14-------------17-14-------14-15--
B---17-------15-------17-------15-------15-17--------
G------14-16-------------14-16-----------------------
D----------------------------------------------------
A----------------------------------------------------
E----------------------------------------------------

Eventually this happens 2x at 1:01
e---------------17-14-------------17-14--------------
B---17-------15----------------15--------------------
G------14-16-------------14-16-----------------------
D----------------------------------------------------
A----------------------------------------------------
E----------------------------------------------------

Repeat
e---------------17-14-------------17-14-------14-15--
B---17-------15-------17-------15-------15-17--------
G------14-16-------------14-16-----------------------
D----------------------------------------------------
A----------------------------------------------------
E----------------------------------------------------

Played twice at 1:53
e---------------17-14-------------17-14--------------
B---17-------15----------------15--------------------
G------14-16-------------14-16-----------------------
D----------------------------------------------------
A----------------------------------------------------
E----------------------------------------------------

Finally something different (but barely)
e---------17-14-------------17-14--------------------
B------15----------------15--------------------------
G---16-------------14-16-----------------------------
D----------------------------------------------------
A----------------------------------------------------
E----------------------------------------------------


Guitar 2

0:44 Repeat
e----------------------------------------------------
B----------------------------------------------------
G----------------------------------------------------
D----------------------------------------------------
A------------5--7------------------------------------
E---7----5-7---------5-7--7--7-----------------------

1:01
e----------------------------------------------------
B----------------------------------------------------
G---7------7-----------------------------------------
D---7------7--7------7--9--9--9--7-9----9--9--9--7-9-
A---5------5--7------7--9--9--9--7-9----9--9--9--7-9-
E-------------5------5--7--7--7--5-7----7--7--7--5-7-

e----------------------------------------------------
B----------------------------------------------------
G---7------7-----------------------------------------
D---7------7--7------7--9--9--9----7--9--------------
A---5------5--7------7--9--9--9----7--9--------------
E-------------5------5--7--7--7----5--7--------------

1:36 Repeat
e----------------------------------------------------
B----------------------------------------------------
G----------------------------------------------------
D----------------------------------------------------
A------------5--7------------------------------------
E---7----5-7---------5-7--7--7-----------------------

1:53
e----------------------------------------------------
B----------------------------------------------------
G---7------7-----------------------------------------
D---7------7--7------7--9--9--9--7-9----9--9--9--7-9-
A---5------5--7------7--9--9--9--7-9----9--9--9--7-9-
E-------------5------5--7--7--7--5-7----7--7--7--5-7-

e----------------------------------------------------
B----------------------------------------------------
G---7------7-----------------------------------------
D---7------7--7------7--9--9--9--7-9----9--9--9--7-9-
A---5------5--7------7--9--9--9--7-9----9--9--9--7-9-
E-------------5------5--7--7--7--5-7----7--7--7--5-7-

e----------------------------------------------------
B----------------------------------------------------
G---7------9-----------------------------------------
D---7------9--7------7--9--9--9----7--9--------------
A---5------7--7------7--9--9--9----7--9--------------
E-------------5------5--7--7--7----5--7--------------


Guitar 3

Throw this in at 0:34, 0:43, 0:52, 1:00
e---7------------------------------------------------
B---7------------------------------------------------
G----------------------------------------------------
D----------------------------------------------------
A----------------------------------------------------
E----------------------------------------------------


Bass

Repeat several times
G----------------------------------------------------
D----------------------------------------------------
A------------5--7------------------------------------
E---7----5-7---------5-7--7--7-----------------------

1:01
G----------------------------------------------------
D----------------------------------------------------
A---5--5-5--5----7-----------------------------------
E---------------------5--5-5--5----------------------

G----------------------------------------------------
D----------------------------------------------------
A----------------------------------------------------
E---5----7--7--7--5-7----7--7--7--5-7----------------

G----------------------------------------------------
D----------------------------------------------------
A---5--5-5--5----7-----------------------------------
E---------------------5--5-5--5----------------------

G----------------------------------------------------
D----------------------------------------------------
A----------------------------------------------------
E---5----7--7--7----5----7---------------------------

Repeat several times
G----------------------------------------------------
D----------------------------------------------------
A------------5--7------------------------------------
E---7----5-7---------5-7--7--7-----------------------

1:53
G----------------------------------------------------
D----------------------------------------------------
A---5------------7-----------------------------------
E---------------------5------------------------------

G----------------------------------------------------
D----------------------------------------------------
A----------------------------------------------------
E---5----7--7--7--5-7----7--7--7--5-7----------------

G----------------------------------------------------
D----------------------------------------------------
A---5------------7-----------------------------------
E---------------------5------------------------------

G----------------------------------------------------
D----------------------------------------------------
A----------------------------------------------------
E---5----7--7--7--5-7----7--7--7--5-7----------------

G----------------------------------------------------
D----------------------------------------------------
A---5------------7-----------------------------------
E---------------------5------------------------------

G----------------------------------------------------
D----------------------------------------------------
A----------------------------------------------------
E---5----7--7--7----5--7-----------------------------