Login or Register to remove this ad. | Advertise Here

Trailer Theme (Dead Island) Guitar Tab

Submitted: Dec 15, 2011 by Naitmaere

4
Average: 4 (4 votes)
Download | Listen
Game: Dead Island
Composer(s): Giles Lamb
Style: Arrangement, Fingerstyle

AutoScroll: Slow | Medium | Fast
I fell in love with this song the moment I heard it.
I don't know what the "real title" is, if it has one.
I only ever see it listed as "trailer theme."

This is only the piano part.




Name of song: Trailer Theme
Name of game: Dead Island
Composer of song: Giles Lamb
Name of tabber: Naitmaere
Date tab was made: December 14, 2011




Let ring throughout. 

E|---------------------|---------------------|---------------------|--------|---------------------|
B|-2-------------------|-2-------------------|-2-------------------|-4------|-2-------------------|
G|------3----4----3----|------3----4----3----|------3----4----3----|-4------|------3----4----3----|
D|---------------------|---------------------|---------------------|-4------|---------------------|
A|---------------------|---------------------|---------------------|--------|---------------------|
D|-4-------------------|-1-------------------|-4-------------------|-4------|-4-------------------|


E|---------------------|---------------------|-2------|---------------------|---------------------|
B|-2-------------------|-2-------------------|--------|-2-------------------|-2-------------------|
G|------3----4----3----|------3----4----3----|-3------|------3----4----3----|------3----4----3----|
D|---------------------|---------------------|-4------|---------------------|---------------------|
A|---------------------|-4-------------------|--------|---------------------|---------------------|
D|-1-------------------|---------------------|-4------|-4-------------------|-1-------------------|


E|---------------------|---------------------|---------------------|---------------------|
B|-2-------------------|-4--------------2----|-2-------------------|-2-------------------|
G|------3----4----3----|------3----4---------|------3----4----3----|------3----4----3----|
D|---------------------|---------------------|---------------------|---------------------|
A|-4-------------------|-2-------------------|---------------------|---------------------|
D|---------------------|---------------------|-4-------------------|-1-------------------|


E|--------|--------|---------------------|---------------------|---------------------|
B|-2------|--------|-2-------------------|-2-------------------|-2-------------------|
G|-3------|-4------|------3----4----3----|------3----4----3----|------3----4----3----|
D|-4------|--------|---------------------|---------------------|---------------------|
A|-4------|-2------|---------------------|---------------------|-4-------------------|
D|--------|--------|-4-------------------|-1-------------------|---------------------|


E|---------------------|---------------------|---------------------|---------------------|
B|-4--------------2----|-2-------------------|-2-------------------|-2-------------------|
G|------3----4---------|------3----4----3----|------3----4----3----|------3----4----3----|
D|---------------------|---------------------|---------------------|---------------------|
A|-2-------------------|---------------------|---------------------|-4-------------------|
D|---------------------|-4-------------------|-1-------------------|---------------------|


E|---------------------|---------------------|---------------------|---------------------|
B|-4--------------2----|-2-------------------|-2-------------------|-2-------------------|
G|------3----4---------|------3----4----3----|------3----4----3----|------3----4----3----|
D|---------------------|---------------------|---------------------|---------------------|
A|-2-------------------|---------------------|---------------------|-4----4----4----4----|
D|---------------------|-4----4----4----4----|-1----1----1----1----|---------------------|


E|---------------------|---------------------|---------------------|---------------------|
B|-4--------------2----|-2-------------------|-2-------------------|-4--------------2----|
G|------3----4---------|------3----4----3----|------3----4----3----|------3----4---------|
D|---------------------|---------------------|---------------------|---------------------|
A|-2----2----2----2----|---------------------|---------------------|-4----4----4----4----|
D|---------------------|-4----4----4----4----|-1----1----1----1----|---------------------|


E|-2-----6-----|-6------|
B|-4-----------|--------|
G|-4-----------|-3------|
D|-------------|--------|
A|-2-----------|--------|
D|-------------|-4------|

4 comments on Trailer Theme

great

5

the song name is "who do your voodoo" by sam B

Sounds like its in completely

Sounds like its in completely the wrong key.

A very basic way to play this, and actually make it sound like the song, is:

e|----------
b|----------
g|-0--------
d|---2-3-2--
a|-3---3----
e|----------

Listen to the song for timings, and end on a single 3 on the A string

I have to disagree again. The

I have to disagree again. The main four top notes that repeat are in the right key. Althought those bass notes sound a bit strange

Edit: Oh this is in drop D tuning, then those bass notes are fine

If you are tuned in just

5

If you are tuned in just basic standard its playable too just swap out the 2b 4d and the 2b 4a parts for 2b 2e and 2b 0e(in standard) also I'd change the 2b 4a to 2b 2a :) but otherwise this is rather flawless