Login or Register to remove this ad. | Advertise Here

The Village Festival (Dark Cloud) Guitar Tab

Submitted: May 08, 2011 by Auronold

5
Average: 5 (1 vote)
Download | Listen
Game: Dark Cloud
Composer(s): Tomohito Nishiura
Style: Alternate picking, Transcription

AutoScroll: Slow | Medium | Fast
Intro (0:13)
Every odd time, the e5 is played short
Every even time, the e5 is held for about a second longer
Refer to Link.

e-----------5-4----------
b----7-5-7------7-5-7----
g--4---------------------
d------------------------  (x3)
A------------------------
E------------------------

Pipes(0:27)

Hold the last note for a second

e---------------------------------------
b--0-3-2-0-------------------3-2-0------
g----------2-4---2-4---2-4-2-------2-4--
d--------------4-----4------------------
A---------------------------------------
E---------------------------------------

e---------------------------------------
b--------------2-3-2-0------------------
g----2-4---2-4---------2-4---2-4---2-4--
d--4-----4-----------------4-----4------
A---------------------------------------
E---------------------------------------

e-----------------------------
b----3-2-0--------------------
g--2-------2-4---2-4---2-4----
d--------------4-----4--------
A-----------------------------
E-----------------------------

Anyone who can help me with anything else on this song, please leave a comment!

2 comments on The Village Festival

Awesome Game and Tab

Such an amazing game, even with the repetitive gameplay. Thanks for posting this tab its awesome.

Thanks!

Thanks for the kind words. Dark Cloud has to be my number one game for the PS2. I never got into the second Dark Cloud, felt like it lacked but maybe I just dont like sequels lol
There are times where I'll play a few songs from the DC soundtrack on my mp3 player cause some of those songs are simply amazing.