Login or Register to remove this ad. | Advertise Here

Shop (Dark Cloud 2) Guitar Tab

Submitted: Jul 17, 2011 by Max_depa

5
Average: 5 (2 votes)
Download | Listen
Game: Dark Cloud 2
Composer(s): Tomohito Nishiura
Style: Arrangement, Fingerstyle

AutoScroll: Slow | Medium | Fast
Shop - Dark Cloud 2
Arranged by: Max_depa
Composed by: Tomohito Nishiura

Capo:2
Drop D Tuning

     H        Q.     S S      E  E  E  E  Q.     S S    E  E  E  E  Q    Q     
E||----------------------||------------3-------------|------------------------|
B||------------------3-1-||---0-----3-----3--------0-|-------------------3----|
G||--0--------0----------||*-----5---------------5---|--2-----0--2--0---------|
D||----------------------||*-------------------------|-----4------------------|
A||----------------------||--------------------------|------------------------|
D||----------------------||---5-----------5----------|--0-----------0---------|


  E  E  E  E  Q    E.  T T    E  E  E  E  E  E  E  S S  
-------------------3---1-2-|--3--2--1--0-----3--2--0---|
--1--0--------1------------|--------------3--------3-1-|
--------2--0---------------|---------------------------|
---------------------------|---------------------------|
---------------------------|---------------------------|
--2-----------2------------|--4-----------0------------|


  E  E  E  E  Q.     S S    E  E  E  E  Q    Q       E  E  E  E  Q    E.  T T  
-----------3-------------|------------------------|---------------------------|
--0--1--3-----3--------0-|-------------------3----|--1--0--------3----0---1-2-|
---------------------5---|--2-----0--2--0---------|--------2--0---------------|
-------------------------|-----4------------------|---------------------------|
-------------------------|------------------------|---------------------------|
--5-----------5----------|--0-----------0---------|--2-----------5------------|


                 |-3-|                                                         
  E  E  E  E  E  S S S E  E     Q    Q    Q.     S T T    Q    Q    Q.     E   
-----------------------------|------------0----------0-|--3-------------------|
--3--1--0-----------------0--|--1----------------1-3---|-------3----3------0--|
-----------2--0--0-2-0-------|-------2----2------------|----------------------|
-----------------------4-----|-------------------------|----------------------|
--2--------------------------|-------------------------|--2-------------------|
--------------------------2--|--2----------------------|------------0---------|


  Q    Q    Q.     S S    E  E  E  E  Q.     E     Q    Q    Q.     S S  
------------0----------|------------------------|--0----2----3------5-3-|
--1----------------3-1-|--0--1--2--3--3------3--|-----------------------|
-------2---------------|------------------------|-----------------------|
-----------------------|------------------------|-----------------------|
-----------------------|------------------------|--3--------------------|
------------2----------|--------------0---------|------------5----------|


  E  E  E  E  Q.     S S    E  E  E  E  E.  S Q       H        Q.     S S    
--2--3--5--7--7----------|--0--2--3--8--7---3-5----|--3--------------------||
---------------------7---|-------------------------|------------------3----||
-----------------------7-|-------------------------|--------------------5-*||
-------------------------|-------------------------|----------------------*||
-------------------------|--3----------------------|-----------5-----------||
--4-----------9----------|--------------0----------|--5--------------------||


  W                  
-------------------||
--3----------------||
--4----------------||
--5----------------||
-------------------||
-------------------||




Duration Legend
---------------
W - whole
H - half
Q - quarter
E - 8th
S - 16th
T - 32nd
X - 64th
. - note dotted
|-n-|  - n-tuplets


Tablature Legend
----------------
L - tied note
x - dead note
g - grace note
(n) - ghost note
> - accentuded note
NH - natural harmonic
AH - artificial harmonic
TH - tapped harmonic
SH - semi harmonic
PH - pitch harmonic
h - hammer on
p - pull off
b - bend
br - bendRelease
pb - preBend
pbr - preBendRelease
brb - bendReleaseBend
\n/ - tremolo bar dip
\n - tremolo bar dive
-/n - tremolo bar Release up
/n\ - tremolo bar inverted dip
/n - tremolo bar return
-\n - tremolo bar Release down
S - shift slide
s - legato slide
/ -  slide into from below or out of upwards
\ -  slide into from above or out of downwards
~ - vibrato
W - wide vibrato
tr - trill
TP - tremolo picking
T - tapping
S - slap
P - pop
< - fade in
^ - brush up
v - brush down

4 comments on Shop

:D

5

You're my hero, I love this one.

glad you like it =DD

glad you like it =DD

Lol, keep this up and you'll

5

Lol, keep this up and you'll become my 2nd favorite guitarist. Right after lonlonjp. :D It's totally cool, takes me back. :)

ooooh really? i'm honored,

ooooh really? i'm honored, you're too kind! =)