Login or Register to remove this ad. | Advertise Here

Dancing Calcobrena (Final Fantasy IV) Bass Tab

Submitted: Aug 01, 2010 by mrjordak (Last updated: Aug 07, 2010)

5
Average: 5 (1 vote)
Download | Listen
Game: Final Fantasy IV
Composer(s): Nobuo Uematsu
Style: Transcription
Series: Final Fantasy

AutoScroll: Slow | Medium | Fast
Dancing Calcobrena
Final Fantasy IV
Nobuo Uematsu
Tab by Jordan Norbury
01 August 2010

Timing: 3/4
Tuning: Standard

There are a few staccato notes in this as well, but you should be able to work them out by
listening to the song. The tempo is pretty fast too.

  |1  +  2  +  3  +  ||1  +  2  +  3  +  ||1  +  2  +  3  +  ||1  +  2  +  3  +  |
G |------------------||------------------||------------------||------------------|
D |------------------||7-----------5-----||3-----------------||------------------|
A |0-----------7-----||------------------||------------------||------------------|
E |------------------||------------------||------------------||1-----------3-----|

  |1  +  2  +  3  +  ||1  +  2  +  3  +  ||1  +  2  +  3  +  ||1  +  2  +  3  +  |
G |------------------||------------------||------------------||5-----------------|
D |------------------||7-----------5-----||3-----------------||------------------|
A |0-----------7-----||------------------||------------------||------------------|
E |------------------||------------------||------------------||------------------|

  |1  +  2  +  3  +  ||1  +  2  +  3  +  ||1  +  2  +  3  +  ||1  +  2  +  3  +  |
G |------------------||------------------||------------------||------------------|
D |------------------||------5--------4--||3-----------------||------------------|
A |0-----7--6--7-----||0-----------------||------------------||------------------|
E |------------------||------------------||------------------||1-----------3-----|

  |1  +  2  +  3  +  ||1  +  2  +  3  +  ||1  +  2  +  3  +  ||1  +  2  +  3  +  |
G |------------------||------------------||------------------||------------------|
D |------------------||------1--------2--||------------5-----||3-----------------|
A |0-----7--6--7-----||0-----------------||------------------||------------------|
E |------------------||------------------||1-----------------||------------------|

  |1  +  2  +  3  +  ||1  +  2  +  3  +  ||1  +  2  +  3  +  ||1  +  2  +  3  +  |
G |------------------||------------------||------------------||------------------|
D |------------------||------5--------4--||3-----------------||------------------|
A |0-----7--6--7-----||0-----------------||------------------||------------------|
E |------------------||------------------||------------------||1-----------3-----|

  |1  +  2  +  3  +  ||1  +  2  +  3  +  ||1  +  2  +  3  +  ||1  +  2  +  3  +  |
G |------------------||------------------||------------------||------------------|
D |------------------||------1--------2--||------------5-----||3-----------------|
A |0-----7--6--7-----||0-----------------||------------------||------------------|
E |------------------||------------------||1-----------------||------------------|

And then it repeats and fades out.

4 comments on Dancing Calcobrena

Hm, it's actually more like

The first eight measures are correct. But after that, it goes more like this:

  |1  +  2  +  3  +  ||1  +  2  +  3  +  ||1  +  2  +  3  +  ||1  +  2  +  3  +  |
G |------------------||------------------||------------------||------------------|
D |------------------||------5--------4--||3-----------------||------------------|
A |0--------6--7-----||0-----------------||------------------||------------------|
E |------------------||------------------||------------------||1-----------3-----|

  |1  +  2  +  3  +  ||1  +  2  +  3  +  ||1  +  2  +  3  +  ||1  +  2  +  3  +  |
G |------------------||------------------||------------------||------------------|
D |------------------||------------2-----||5-----------4-----||3-----------------|
A |0--------6--7-----||0-----3-----------||------------------||------------------|
E |------------------||------------------||------------------||------1-----------|

(played twice)

Hey

This is the guy who wrote the tab, but I forgot my password to my 'mrjordak' account, so I created a new account: mrjordak2 (creative, huh?)

I agree with you on the 2nd bar you've written. I made a mistake, it does indeed go A String - 5 4, not 5, 5.

As for the rest of it, I think I can see the reason why our tabs are so different.

This is a link to the version I've always heard: http://www.youtube.com/watch?v=zFTZulcOew4

Listen to the bass, it does do what I tabbed. Now I'm guessing this is the version you're familiar with: http://www.youtube.com/watch?v=cInk4xZbOFE

I'm not sure which is the original SNES version, I'm guessing yours, so sorry for the confusion.

Ah, that first link doesn't

Ah, that first link doesn't work (Youtube says to try later, so I will). The one I posted is the SNES version, yes :-) I can edit your tab for you, so I'll change the 5 5 to 5 4.

Okay =D

Yeah, feel free to edit that bar. If you want to hear the Dancing Calcobrena I know just type 'Dancing Calcobrena' in YouTube and it was the first video.