Login or Register to remove this ad. | Advertise Here

Roaming in the Afternoon Sun (Crisis Core: Final Fantasy VII) Guitar Tab

Submitted: Jul 06, 2010 by hslesperance

4.5
Average: 4.5 (4 votes)
Download | Listen
Game: Crisis Core: Final Fantasy VII
Composer(s): Takeharu Ishimoto
Style: Transcription
Series: Final Fantasy

This song is also called Wandering on a Sunny Afternoon

AutoScroll: Slow | Medium | Fast
Roaming in the Afternoon Sun
Crisis Core: Final Fantasy VII
Composed by Takeharu Ishimoto
Tabbed by hslesperance
7/6/10

Standard Tuning


e-------------------------15--/17-/19~------------------------
B---10b12r----------------------------------------------------
G-------------------------------------------------------------
D-----------------------------------------------------8b9r----
A-------------------------------------------------------------
E-------------------------------------------------------------

Play 2x
e-------------------------------------------------------------
B-------------------------------------------------------------
G---9-7--9--------------------------9-7--9--------------------
D-------------9--------------7----------------9--------7------
A--------------------------------------------------------10---
E-------------------------------------------------------------

Play 2x
e---12-10--12----------------------------12-10--12----------------------
B----------------12--------------10-------------------12--------10------
G------------------------------------------------------------------12---
D-----------------------------------------------------------------------
A-----------------------------------------------------------------------
E-----------------------------------------------------------------------

e---10----10----10----10----10----10----9h10--10--------------
B-------------------------------------------------------------
G-------------------------------------------------------------
D-------------------------------------------------------------
A-------------------------------------------------------------
E-------------------------------------------------------------

e---10----10----10----10----10----10----12/15--15-------------
B-------------------------------------------------------------
G-------------------------------------------------------------
D-------------------------------------------------------------
A-------------------------------------------------------------
E-------------------------------------------------------------

e---10----10----10----10----10----10----9h10--10--------------
B-------------------------------------------------------------
G-------------------------------------------------------------
D-------------------------------------------------------------
A-------------------------------------------------------------
E-------------------------------------------------------------

e---10----10----10----10----10----10----12/15--15-------------
B-------------------------------------------------------------
G-------------------------------------------------------------
D-------------------------------------------------------------
A-------------------------------------------------------------
E-------------------------------------------------------------

e---12------10--8----------12----10--8------------------------
B-------10---------12-------------------12--10\8--8-----------
G-------------------------------------------------------------
D-------------------------------------------------------------
A-------------------------------------------------------------
E-------------------------------------------------------------

e---12----10--8----------12----10--8--------------------------
B----------------12-------------------12--10\8--8-------------
G-------------------------------------------------------------
D-------------------------------------------------------------
A-------------------------------------------------------------
E-------------------------------------------------------------

e---12------10--8----------12----10--8------------------------
B-------10---------12-------------------12--10\8--8-----------
G-------------------------------------------------------------
D-------------------------------------------------------------
A-------------------------------------------------------------
E-------------------------------------------------------------

e---12----10--8-----------------------------------------------
B----------------12------8/10--10-10p8----8-------------------
G-------------------------------------------------------------
D-------------------------------------------------------------
A-------------------------------------------------------------
E-------------------------------------------------------------

e---12------10--8----------12----10--8------------------------
B-------10---------12-------------------12--10\8--8-----------
G-------------------------------------------------------------
D-------------------------------------------------------------
A-------------------------------------------------------------
E-------------------------------------------------------------

e---12----10--8----------12----10--8--------------------------
B----------------12-------------------12--10\8--8-------------
G-------------------------------------------------------------
D-------------------------------------------------------------
A-------------------------------------------------------------
E-------------------------------------------------------------

e---12------10--8----------12----10--8------------------------
B-------10---------12-------------------12--10\8--8-----------
G-------------------------------------------------------------
D-------------------------------------------------------------
A-------------------------------------------------------------
E-------------------------------------------------------------

e---12----10--8-----------------------------------------------
B----------------12------8/10--10-10p8--8--8--8--8------------
G-------------------------------------------------------------
D-------------------------------------------------------------
A-------------------------------------------------------------
E-------------------------------------------------------------

h - hammer on
p - pull off
b - bend
r - release
/ - slide up
\ - slide down
~ - vibrato