Login or Register to remove this ad. | Advertise Here

A Moment of Courtesy (Crisis Core: Final Fantasy VII) Guitar Tab

Submitted: Jul 08, 2010 by hslesperance

5
Average: 5 (1 vote)
Download | Listen
Game: Crisis Core: Final Fantasy VII
Composer(s): Takeharu Ishimoto
Style: Transcription, Tremolo
Series: Final Fantasy

AutoScroll: Slow | Medium | Fast
A Moment of Courtesy
Crisis Core: Final Fantasy VII
Composed by Takeharu Ishimoto
Tabbed by hslesperance
7/8/10

Standard Tuning

On the part with tremolo picking the numbers indicate how many 
times to play each note. The 17's before the tremolo picking
should be an ovtave higher but they are too high for guitar.


e------------------------------------------8--10--12p10-------
B-------------------------------------------------------------
G--------------------7------------7---------------------------
D---9---10---7---9-------7------------10----------------------
A----------------------------10-------------------------------
E-------------------------------------------------------------

e--------------------------15---22--19------------------------
B---------------------15----------------20-----------17-------
G---------------14--------------------------17--19--------19--
D---12-14-12-14-----------------------------------------------
A-------------------------------------------------------------
E-------------------------------------------------------------

e--------22---19--------------------------------17---20-------
B---19-------------20------------17--------20------------17---
G----------------------17--19---------19----------------------
D-------------------------------------------------------------
A-------------------------------------------------------------
E-------------------------------------------------------------
                        TP;18x      TP;6x   TP;12x    TP;10x
e-----------------------14------------------15----------------
B---17--17--17--17--17--------------15----------------15------
G-------------------------------------------------------------
D-------------------------------------------------------------
A-------------------------------------------------------------
E-------------------------------------------------------------

e-------------------------------------------------------------
B---13-12-------12----13--------------------------------12----
G---------14----------------12----------12--14--12--14--------
D-------------------------------------------------------------
A-------------------------------------------------------------
E-------------------------------------------------------------

e-------------------------------17----19------20----------17--
B----------------------------20---------------------20--------
G---14-12--11-------------------------------------------------
D-------------------------------------------------------------
A-------------------------------------------------------------
E-------------------------------------------------------------

e---19------17------------------17----19------20----------17--
B--------------20----19------20---------------------20--------
G-------------------------------------------------------------
D-------------------------------------------------------------
A-------------------------------------------------------------
E-------------------------------------------------------------

e---19------17---------------------------------------15--17---
B--------------20----19------17------------------15-----------
G-------------------------------------------------------------
D-------------------------------------------------------------
A-------------------------------------------------------------
E-------------------------------------------------------------

p - pull off
TP - tremolo picking

1 comment on A Moment of Courtesy

o no! my guitar only has 20

o no! my guitar only has 20 frets LOL XD