Login or Register to remove this ad. | Advertise Here

Recent comments

Comment Posted on Submittedsort icon

are we supposed to run the tremolo at a different beat than the base notes? because from the midi it doesn't seem to follow the alhambra p then ami pattern

Innocent Sea (Solo) 5 years 42 weeks ago

yes please. post up the alde baran theme, you'll be adored by many guitarists

Peaceful Forest 5 years 42 weeks ago

No good.. sorry.. bad tempo.. boring..

File Select guitar cover 5 years 42 weeks ago

CHECK MY CHANNEL
http://www.youtube.com/user/channel120592

File Select guitar cover 5 years 42 weeks ago

CHECK MY CHANNEL
http://www.youtube.com/user/channel120592

Sheik song guitar cover 5 years 42 weeks ago

This is the way I play:
-----------------------------------------------------------
---1-0h1p0-------1-0h1h0---------1-0h1p0-------1-0h1p0-----
-2-----------0-2---------2-0---2-----------0-2---------0-2-
-----------------------------2-----------------------------
-----------------------------------------------------------
-----------------------------------------------------------

-5-8-7h8p7-----5-8-7h8p7-5-----5-8-7h8p7-----5-8-7h8p7---5-
-------------8-------------8-5-------------8-----------8---
-----------------------------------------------------------
-----------------------------------------------------------
-----------------------------------------------------------
-----------------------------------------------------------

-------------------------12-12-10---8-7-7-5-
-10-10-8-----10-8---------------------------
-----------9------10-9----------------------
--------------------------------------------
--------------------------------------------
--------------------------------------------

-12-12-10---12-10-8-7---12-13-12-10-8---7---5-
-10-10-8----10-8--7-5---10-11-10-8--10--5---5-
----------------------------------------------
----------------------------------------------
----------------------------------------------
----------------------------------------------

---5-8-7h8ph7-------5-8-7h8p7-
-5-------------8--5-----------
------------------------------
------------------------------
------------------------------
------------------------------

Stone Tower Temple 5 years 42 weeks ago

Yeah this is Archard's version.
And Thanks! :D

Raccoon Police - Zelda's Lullaby Guitar 5 years 42 weeks ago

Awesome tab!! Kirby Rocks!!

Gourmet Race 5 years 42 weeks ago

Perfect once again archard!

To Zanarkand 5 years 42 weeks ago

Thanx for posting this,it really brings back memories.This is one of my favorite SNES games, and is my favorite song from mystic quest too.

Red Cap Assault 5 years 42 weeks ago

if I could rate 6 stars I would

Yuna's Ballad 5 years 42 weeks ago

nice its good to see this game still lives on in some form

Oedo Town 5 years 42 weeks ago

Beautiful as always! Been working to commit this one to memory. How long did it take you to learn?

Dimension Break 5 years 42 weeks ago

This is one of the few songs I have committed to memory. Archard's version right? Nice job.

Raccoon Police - Zelda's Lullaby Guitar 5 years 42 weeks ago

It is a great tab. I just wish there was a Lost Woods Tab. Someone should do a tab of this sort and throw in some bass strings so it doesn't sound so plain.

Kakariko Village 5 years 42 weeks ago

Hey thats pretty good man. It is alot more comfortable to play it like this. Thanks!

Kakariko Village 5 years 42 weeks ago

cool never hear this before

Area E/Narukini 5 years 42 weeks ago

I love it. And thanks for the tab too, man!

Zelda's Lullaby 5 years 42 weeks ago

ohh... its makes no sense, but i am remotley amused.

teeheeheeheehee...

Level 1-1 5 years 42 weeks ago

THATS HARD!!! nevertheless, i liked wat i could play. the start to a great adventure, finally tabbed.

Pallet Town 5 years 42 weeks ago

ok, its been a while and ive figured it out. im giving it a 5 star coz it isnt your fault the bleeps and blops go sooooo high!

Title Screen 5 years 42 weeks ago

that looks complecated. im happy with my one note version :)

Viridian City 5 years 42 weeks ago

ive owned a pokemon game from every series, i cant seem to get over them. but after the elite 4, walking around begins to get a bit boring.

if this tab sounds as good as theh midi, i would consider that a job well done. bravo to you zelos.

Ecruteak City 5 years 42 weeks ago

lol really cool! xD
have a vid of this song?

Another Termina 5 years 42 weeks ago

I absolutely love this arrangement. I really enjoyed the 'bridge' of sorts that you arranged for this piece. It sounds excellent.

Castle Corneria 5 years 42 weeks ago

Man you roxxxxx thanks a lot :D

Shin Onigashima 5 years 42 weeks ago

i no it better as battlefield version 2, becausein all fairness, ssbb onlne is terrible. it is soooooo slow! but this song is awesome.

btw carlito94 i have gh3 on the wii

Wi-Fi Waiting Room 5 years 42 weeks ago

What guitar do you have to be able to play above fret 12 properly? :(
However, I love this song but it isn't nearly as cool without the accompaniment. Also the 2nd part that originally is played by brass instruments doesn't sound quite right to me.
So I took your tab and overworked it abit. Post your opinion here:
http://www.gametabs.net/forum/viewtopic.php?f=9&t=953

Make Eggs, Throw Eggs 5 years 42 weeks ago

Sounds great to me dude, keep it up, =D.

Animal Village 5 years 42 weeks ago

Perfect! I wish I had a classical guitar to wail on, ^^". I'll just have to do it on my electric for now, XD.

-Blur

Kakariko Village 5 years 42 weeks ago

I love you....

..... tifa..

Tifa's Theme 5 years 42 weeks ago

i remember this! it plays wen rosalina reads books too. good tab, but it could be done easier.

The Story Begins 5 years 42 weeks ago

man, we need to rename this site "gameguitartabs." we don't do drum tabs. anyway, awesome tab.

Gym 5 years 42 weeks ago

this is the best! easy, and it sounds perfect!

Forest Haven 5 years 42 weeks ago

kabuki never fails to make perfect acoustic arrangements :)

Midna's Theme 5 years 42 weeks ago

How do you strum the 123 1 cord

E |-0--------------5--3--0--|--------------------0--5-
B |-------------------------|--1-----3----------------
G |-0-----------------------|--2----------------------
D |-------------------------|--3----------------------
A |-0-----------------------|-------------------------
E |-------------------------|--1----------------------
this one---------------------->^

Main Theme 5 years 42 weeks ago

Kick....ASS LOVE MGS U are a awsome guitarest.

Main Theme 5 years 42 weeks ago

Dude my name is seth too

Kakariko Village 5 years 42 weeks ago

Nice job man

Dearly Beloved 5 years 42 weeks ago

Great arrangement. I really like the chord that it ends on.

Dearly Beloved 5 years 42 weeks ago

I think it's perfect dude! The only problem I'm having is I keep losing my spot, ^^". It's just the spacing is all the same and it's hard to tell when which note is played, =P. You have all the correct notes though from I can tell by following the MIDI.

Love to see more Sonic Adventure stuff from you dude!

-Blur

EDIT: Actually, at the part:

g |--s9-5-7-5-7b^-7-5-7-4---------4-5---4-5-------
d |-----------------------6-6-6-7-----7-----6-5-3

I think it should be

g |--s9-5-7-5-7b^-7-5-7-4---------4-5-----------4-5-------
d |-----------------------6-6-6-7-----7-7-7-7-7-----6-5-3

It sounds like that seven is tremelo'd around a bit, ^^.

Rumbling Highway 5 years 42 weeks ago

Me a hater? Wtf FYI The tab is still in that youtube link.

Cosmo Canyon 5 years 42 weeks ago

this song is exactly what i was looking for, and i'm so pleased to find it perfectly done.

Underworld 5 years 42 weeks ago
like this?

E|----------------------20----------------
B|-20-19-16-------17-20-------------------
G|----------------------------------------
D|----------19-18-------------------------
A|----------------------------------------
E|----------------------------------------
Secret Discovery 5 years 42 weeks ago

Thanks for pointing that out. When I realized near the end of doing this the first time that the 3rd string was detuned, I changed the tuning and let guitarpro adjust the fingerings. It completely screwed up every grace note but I didn't notice the hammers getting screwed up as well. Before they were hammered and pulled but when it changed I guess for some reason it left them on. I'll take them out.

Village 5 years 42 weeks ago

Wow, that must have been a bitch to transcribe. But it looks like you nailed it. One thing I don't understand though, is your use of hammer ons.

                       |--3--| |--3-|                                  
  S  T  T S S E  E     S  S  S S  S S E.    S    H           H         
--------------------|-------------------------|-----------|-----------|
--------------------|-------------------------|-----------|-----------|
-----0h-----0-------|-------------------------|-----------|-----------|
--2h----2-0---2--0--|--------0----------------|-----------|-----------|
--------------------|--2h-4h---4p-2-0-2-------|-----------|-----------|
--------------------|---------------------2g3-|--0--------|--L--------|

I always thought hammer ons occurred between two frets, and of course they have to be on the same string. But here it seems you have hammer ons that aren't really possible. Am I reading this wrong, or what?

Village 5 years 42 weeks ago

nice!

The Story Begins 5 years 42 weeks ago

I want to learn Cara and Grantes's song.

Noel 5 years 42 weeks ago

Snake...Snake!....Snaaaaaaaaaaaaaaaaaaaaaaaaaaaaaaaaaaaaaaaaake!!!!!!!!
this tab is SWEET.

Game Over 5 years 42 weeks ago

i think one at the top is worth it

Epona's Song 5 years 42 weeks ago