Login or Register to remove this ad. | Advertise Here

Recent comments

Comment Posted on Submittedsort icon

I like the brawl one best. I might hae a tab for itlying around somewhere.

Stickerbrush Symphony 6 years 1 week ago

Ah, you're right. Good catch.

Into the Darkness 6 years 1 week ago

This is pretty sweet. Somebody should change how it's labeled, though. It says FFVI on the site and FFIV on the tab (the tab being the correct one).

Into the Darkness 6 years 1 week ago

fucking amazing. Solo works so well with the song as well. Great job on that. And I would also like the tabs if you got them. But i don't have guitar pro so...

Boss Theme 6 years 1 week ago

Great Tab

Overworld 6 years 1 week ago

Hey guys, just wanted to let you know I tweaked this to make it MUCH more playable. Who know flattening one string a half step would make it a lot easier. Anyway, updated the tabs and changed the ending. Hope you like it and hope more people can tackle it now. :)

Lilium 6 years 1 week ago

That casual gamers haven't heard of or played this game. I have it and it's great, but the majority of people I've talked to haven't.

Open the Door 6 years 1 week ago

Wikipedia delivered the answer why few people know it over there:
Terranigma has not been published in the US, only in Japan and Europe.

Open the Door 6 years 1 week ago

What are you trying to say?

Open the Door 6 years 1 week ago

It's pretty popular amongst the more hardcore gamers I think. No one I've ever mentioned it to, even people who enjoy rpgs, had heard of it.

Open the Door 6 years 1 week ago

Actually, no.

I found a piano version of it, tweaked it a bit, and transposed it to get it to work easier.

Barrett's Theme 6 years 1 week ago

I'll try to put up a recording sometime, so everyone can see what it sounds like.

Lost Woods 6 years 1 week ago

It'd be better to play

e------------------------------------------------------------
B------------------------------------------------------------
G------------------------------------------------------------
D--0h2-2-2-2--0-2----------0h2-2-2-2--0-2--------
A------------------------------------------------------------
E------------------------------------------------------------

e------------------------------------------------------------
B------------------------------------------------------------
G------------------------------------------------------------
D--4h5-5-5-5--4-5----------0h2-2-2-2--0-2--------
A------------------------------------------------------------
E------------------------------------------------------------

as

e------------------------------------------------------------
B------------------------------------------------------------
G------------------------------------------------------------
D------------------------------------------------------------
A--5/7-7-7-7--5-7----------5/7-7-7-7--5-7----------
E------------------------------------------------------------

e------------------------------------------------------------
B------------------------------------------------------------
G------------------------------------------------------------
D--5/7-7-7-7--5-7---------------------------------------
A--------------------------5/7-7-7-7--5-7---------------
E------------------------------------------------------------

Red XIII's Theme 6 years 1 week ago

It might be easier if you make
e----------------------------------------
B-------15-13---------------15-13--
G--14-----------12-14-14-----------
D----------------------------------------
A----------------------------------------
E----------------------------------------

as

e--------10--8---------------10--8--
B--10-------------8-10-10-----------
G----------------------------------------
D----------------------------------------
A----------------------------------------
E----------------------------------------

I could rewrite the whole tab and try and squeeze it into a smaller area so you don't have to move your fingers so much

The Man With the Machine Gun 6 years 1 week ago

Isn't Terranigma pretty popular, actually?

Open the Door 6 years 1 week ago

Funny, seeing as how this was transcribed from a midi, with the melody lowered a few steps.

Barrett's Theme 6 years 1 week ago

I like my version better! XD but yours still kicks ass!!! MGS!

Intro Theme 6 years 1 week ago

SW33T!!! It's about time I saw some Shining Force tabs!!! XD

Simone 6 years 1 week ago

Nice tab, Golden Axe kicks ass!!!

Old Map 6 years 1 week ago

Sick tab bro!!!

Archive Level 6 years 1 week ago

Starcraft kicks ass!!! Thanks for the tab!!! XD

Terran Theme 1 6 years 1 week ago

This is an awesome tab, everywhere I look, I can only find the Boss Theme, it's a breath of fresh air to finally find this!!! XD

Battle Theme 6 years 1 week ago

Wow, I didn't know anyone else knew about this game! Now I'm just waiting for some "Illusion of Gaia" tabs!!!

Open the Door 6 years 1 week ago

Absolutely bad ass! I love playing this song with a little distortion! Keep up the good work!!!

Tantegel Castle 6 years 1 week ago

Beautiful

Sadness and Sorrow 6 years 1 week ago

Simply amazing, as always. Your videos always remind me that I can't finger-pick to save my life. XD

Sadness and Sorrow 6 years 1 week ago

You know, I used to believe it was that too, but after removing the square 1 and triangle channels from the NES' sound, I found out otherwise. You'll notice that everyone gets the D-5p3h5 from the harmony melody, which is why it sounds a little odd.

Either that, or I'm tone deaf.

Game Over 6 years 1 week ago

You'll probably want to see if you can get a link to that from the front page

For anyone who can't be bothered to click the link, an L simply means to hold the previous note on the same string until you reach the L

As for hammer-ons and pull-offs, since I don't have an amp I just do slides =P

Halo Theme 6 years 1 week ago

yeah it sounds really great idk why it would be to hard for you..theres a lot easier versions of this song on the site its good 2 see a more difficult tab

Hyrule Castle 6 years 1 week ago

they all sound rihght to me, great job

All Victory Themes 6 years 1 week ago

Go Zero go!

Cast Roll 6 years 1 week ago

Wow this is so proo! Keep going sir.

Sadness and Sorrow 6 years 1 week ago

Very good!
thanks

Flanoir 6 years 1 week ago

Perfect !

Sadness and Sorrow 6 years 1 week ago

Ahmygod, until now I have been thinking I was somewhere close to you skillwise, but there's no way I could play this like you do here. :'(

Sadness and Sorrow 6 years 1 week ago

Its pretty good =D !

Intro Theme 6 years 1 week ago

This is teh pwnage!

Main Theme 6 years 1 week ago

2 guitars and Bass.

Town Theme 6 years 1 week ago

XD !
Awesome !

Mog 6 years 1 week ago

Yep, you're right about the beginning and sorry about the missing one, just forgot to write it down... :p Thx anyway!

Fatalize 6 years 1 week ago

Extremely cool. I love the video editing! Keep up the good work.

Port 6 years 1 week ago

Yay for necro posting. 8-)

Might Be Forced to Shut Down 6 years 1 week ago

HAHAHA, verry funny Archard, really.
XD !!!!!!!!!!!!!!!!!!!!!!!!!!!!!!!!!

Might Be Forced to Shut Down 6 years 1 week ago

I belive this would be better

e-----------------------------
B------------------------------
G-5-----2-4-2-1-3-1----------
D---5--------------------5p3h5---------
A-----7-----------------------
E-------------------------------

Beside of that it was perfect.

Game Over 6 years 1 week ago

Here is the whole song of the midi-file:


e--6---------------------6----------------
B----6-8---6---------------6-8---6-----6--
G--------------7---5-----------------7---5
D----------------8------------------------
A-----------------------------------------
E-----------------------------------------

e------------6-8-13-10-6-8
B--------6-8--------------
G----5-7------------------
D--8----------------------
A-------------------------
E------------------------- x2

e--------6-------6----------
B--6---8---6---8---6--------
G----------------------7---5
D------------------------8--
A---------------------------
E---------------------------

e--6---------------------6----------------
B----6-8---6---------------6-8---6-----6--
G--------------7---5-----------------7---5
D----------------8------------------------
A-----------------------------------------
E-----------------------------------------

e--6-5-------6-5--------------------------
B------8-6-------8-6----------------------
G--------------------7-7-5----------------
D-----------------------------------------
A-----------------------------------------
E-----------------------------------------

e--6-------6-5----------6-----------------
B----6-8-6----------------6-8---6----6----
G----------------------------------7---5--
D-----------------------------------------
A-----------------------------------------
E-----------------------------------------

e--6-5-----6-5----------------------------
B------8-6-----8-8-7-6--------------------
G-----------------------------------------
D-----------------------------------------
A-----------------------------------------
E-----------------------------------------

e--6--------------------------------------
B----6-8-6--------------------------------
G-------------7-5-3-----------------------
D-----------------------------------------
A-----------------------------------------
E-----------------------------------------

Sheik's Theme 6 years 2 weeks ago

Woot! Thanks for this, man. As soon as I heard it on your video (which everyone reading should check out) I just had to learn it. Good Stuff!

Cast Roll 6 years 2 weeks ago

I don't even remember this song from the game, it's been so long, but this is beautiful, thank you

Wind Scene 6 years 2 weeks ago

This sounds extremely accurate. Did you find the notes from a midi or score, or did you do this by ear?

Ocarina Melodies 6 years 2 weeks ago

Thanks!

Actually I was using the mp3 version of the song in the background...

Promise 6 years 2 weeks ago

by lead he means the trrumpet bit.. that goes all the way through..

Tank! 6 years 2 weeks ago