Login or Register to remove this ad. | Advertise Here

Recent comments

Comment Posted on Submittedsort icon

Quite cool, but don't overdo it with those arpeggios. ^^

Aerith's Theme 6 years 2 weeks ago

cool tab, melody and rythem is there, just a bit slow on some parts.
keep em coming (^^)y

Aerith's Theme 6 years 2 weeks ago

Thanks! It means a lot.

Promise 6 years 2 weeks ago

Good job, man. We can make it, if we all stick together...awesome song.

We Can 6 years 2 weeks ago

where?when?

Title Theme 6 years 2 weeks ago

im 12 got it right

Death 6 years 2 weeks ago

Well done

Night of Seclusion 6 years 2 weeks ago

so excellent

The Farthest Land 6 years 2 weeks ago

beautiful song and beautiful tabbing i love this game

The Sunlit Earth 6 years 2 weeks ago

god i love this song

Dragon Roost Island 6 years 2 weeks ago

Thanks.

Windy City 6 years 2 weeks ago

Tabs like this make me want to buy an acoustic :-)

Lost Woods 6 years 2 weeks ago

Impressive, as usual. Keep up the good work.

Promise 6 years 2 weeks ago

Sound great once you can play it right it just take time

Lost Woods 6 years 2 weeks ago

awesome arranging.

Various Super Mario World Themes 6 years 2 weeks ago

I'm gonna rank you in the top 5 guitarists on this site. nice.

Various Themes 6 years 2 weeks ago

not my favorite song by any stretch, but you made it sound good.

Underworld 6 years 2 weeks ago

watch your language ya idiot.

Song of Time 6 years 2 weeks ago

duhuhuhu. you're not crazy

Title Theme 6 years 2 weeks ago

awesome! I like to play along with the video. I can't get all of it though.
I can get=

-----------------------||-----------2----0----------|
-----------------------||--------3----------3----2--|
--2------------2----2--||*--2-----------------------|
-----------------------||*--------------------------|
-----------------------||---0-----------------------|
-----------------------||---0-----------------------|

---------------------------|--------------------------|
--3----0-------2-----3--0--|--2------------3--0----2--|
----------0-------2--------|-------2--0---------------|
---------------------------|--------------------------|
--0------------------------|--0-----------------------|
--0------------------------|--0-----------------------|

-------0--2-----0----------|----------2----0----------|
--3----------3-------------|-------3----------3----2--|
-------------------2----2--|--2-----------------------|
---------------------------|--------------------------|
--0------------------------|--0-----------------------|
--0------------------------|--0-----------------------|

---------------------------|----------0----2--3--0-----|
--3----0-------2-----3--0--|--2----3----------------2--|
----------0-------2--------|---------------------------|
---------------------------|---------------------------|
--0------------------------|--0------------------------|
--0------------------------|--0------------------------|

but i can't get the rest.

anyway, like I said,AWESOME!!!!

Title Theme 6 years 2 weeks ago

hard but fun.

Title Theme 6 years 2 weeks ago

i love this song not to gard to paly either

Aeris' Theme 6 years 2 weeks ago

cool. I posted 1 but it didn't work.

Song of Time 6 years 2 weeks ago

dude i love this song

The Nightmare's Beginning 6 years 2 weeks ago

Nice job, real smooth. You're getting good man.

Promise 6 years 2 weeks ago

NICE. This is a really beautiful arrangement.

Sheik's Theme 6 years 2 weeks ago

yea this is one badass song

Chikyuugi 6 years 2 weeks ago

I thought that the "untranscribable" part was gust playing random notes going down.

Maybe not, maybe so,
but what am I to know?

(why did I say that?)

Fever 6 years 2 weeks ago

Who ever thinks that this song is not awesome is crazy!
Nice job.

Song of Healing 6 years 2 weeks ago

Ok, I did an acoustic tab with the background included. I'll post it soon.

The Story Begins 6 years 2 weeks ago

excellent

Sheik's Theme 6 years 2 weeks ago

Nice, but you forgot the last part ;)
I´ll just post it here.

e---10-----12s13---10-----12s13---10-----12s13---10------
B------10-------------10-------------10------------------
G--------------------------------------------------------
D--------------------------------------------------------
A--------------------------------------------------------
E--------------------------------------------------------

Intro Theme 6 years 2 weeks ago

good idea :o

;)

Main Theme 6 years 2 weeks ago

This is awesome. Great work, but it's a bit hard, or I'm just bad...

Marco and Gina 6 years 2 weeks ago

lol what u need big ol' capital letters in font size 50

Main Theme 6 years 2 weeks ago

thank you kindly

Zelda's Lullaby 6 years 2 weeks ago

EDIT: I just redid this using a capo and it makes it soooo much easier. Should be much more playable. :)

Faraway Promise 6 years 2 weeks ago

Yay! Its been updated!

Battle Theme 6 years 2 weeks ago

trumpet sounds awesome!

Kefka's Theme 6 years 2 weeks ago

oops

write it so that people like me dont miss it :p
"drop d" < :)

Main Theme 6 years 2 weeks ago

Cool thanks its still kinda hard but im learning that technique by what you said thanks Also your pretty much a pro and are really god with these songs xD
Edit 2: wait i know about that because i did ur tab on broken promise from dark cloud and i just pulled both strings together to play both which made a harmony with the song as a bounus to the melody

Title Theme 6 years 2 weeks ago

sounds awesome man. very bad ass

Amarant's Theme 6 years 2 weeks ago

quite good you know. this one is simple and easy to learn. sounds good so i'm gone try to play it!!!! go free minks!!!!

Gym 6 years 2 weeks ago

well then, he CLEARLY did, didnt he?

Main Theme 6 years 2 weeks ago

this was really confusing at first, but when i heard the tune, it flew into my head, so cool! :( :| :)!!!!!!!!!!!!

Gym 6 years 2 weeks ago

I've tryed playing the tabs and it doesn't seem to make any sense!!!!!

Viridian City 6 years 2 weeks ago

on the left of the tab

Main Theme 6 years 2 weeks ago

where the hell does it say drop d tuning?

Main Theme 6 years 2 weeks ago

did u drop d tune it?

Main Theme 6 years 2 weeks ago

very very nice, the 6/0/0 pluck sounds a bit off though..?

Main Theme 6 years 2 weeks ago