Login or Register to remove this ad. | Advertise Here

Recent comments

Comment Posted on Submittedsort icon

This is teh pwnage!

Main Theme 5 years 51 weeks ago

2 guitars and Bass.

Town Theme 5 years 51 weeks ago

XD !
Awesome !

Mog 5 years 51 weeks ago

Yep, you're right about the beginning and sorry about the missing one, just forgot to write it down... :p Thx anyway!

Fatalize 5 years 51 weeks ago

Extremely cool. I love the video editing! Keep up the good work.

Port 5 years 51 weeks ago

Yay for necro posting. 8-)

Might Be Forced to Shut Down 5 years 52 weeks ago

HAHAHA, verry funny Archard, really.
XD !!!!!!!!!!!!!!!!!!!!!!!!!!!!!!!!!

Might Be Forced to Shut Down 5 years 52 weeks ago

I belive this would be better

e-----------------------------
B------------------------------
G-5-----2-4-2-1-3-1----------
D---5--------------------5p3h5---------
A-----7-----------------------
E-------------------------------

Beside of that it was perfect.

Game Over 5 years 52 weeks ago

Here is the whole song of the midi-file:


e--6---------------------6----------------
B----6-8---6---------------6-8---6-----6--
G--------------7---5-----------------7---5
D----------------8------------------------
A-----------------------------------------
E-----------------------------------------

e------------6-8-13-10-6-8
B--------6-8--------------
G----5-7------------------
D--8----------------------
A-------------------------
E------------------------- x2

e--------6-------6----------
B--6---8---6---8---6--------
G----------------------7---5
D------------------------8--
A---------------------------
E---------------------------

e--6---------------------6----------------
B----6-8---6---------------6-8---6-----6--
G--------------7---5-----------------7---5
D----------------8------------------------
A-----------------------------------------
E-----------------------------------------

e--6-5-------6-5--------------------------
B------8-6-------8-6----------------------
G--------------------7-7-5----------------
D-----------------------------------------
A-----------------------------------------
E-----------------------------------------

e--6-------6-5----------6-----------------
B----6-8-6----------------6-8---6----6----
G----------------------------------7---5--
D-----------------------------------------
A-----------------------------------------
E-----------------------------------------

e--6-5-----6-5----------------------------
B------8-6-----8-8-7-6--------------------
G-----------------------------------------
D-----------------------------------------
A-----------------------------------------
E-----------------------------------------

e--6--------------------------------------
B----6-8-6--------------------------------
G-------------7-5-3-----------------------
D-----------------------------------------
A-----------------------------------------
E-----------------------------------------

Sheik's Theme 6 years 7 hours ago

Woot! Thanks for this, man. As soon as I heard it on your video (which everyone reading should check out) I just had to learn it. Good Stuff!

Cast Roll 6 years 8 hours ago

I don't even remember this song from the game, it's been so long, but this is beautiful, thank you

Wind Scene 6 years 10 hours ago

This sounds extremely accurate. Did you find the notes from a midi or score, or did you do this by ear?

Ocarina Melodies 6 years 10 hours ago

Thanks!

Actually I was using the mp3 version of the song in the background...

Promise 6 years 10 hours ago

by lead he means the trrumpet bit.. that goes all the way through..

Tank! 6 years 17 hours ago

i like it im playin this on ma dads 5 string bass lol coz i can alreddy play thew lead.. =S its quite hard at the fast bits... im not used to bass

Battle Theme 1 6 years 17 hours ago

Great tab. I think it sounds good if you do (5)b6r5b6 on the B string at the end. That means do a pre-bend on the fifth fret up to the sixth fret, release down to the fifth, and bend back up to the sixth fret.

Ingo's Theme 6 years 18 hours ago

That's why you listen to the midi/MP3 to find out.

All Victory Themes 6 years 19 hours ago

Very nice. This is one of my favorite X tunes next to the intro stage theme. Good job.

Cast Roll 6 years 20 hours ago

Why is it in the video you use the same form but start at 9 rather than 12?

Theme A 6 years 1 day ago

I agree with ElectricGuitar_ARC, the normal battle themes from both worlds are sick, and needs some major-tab-age. =)

The End of a Thought 6 years 1 day ago

Very good

Pegasus Fantasy 6 years 1 day ago

10-4

Barrett's Theme 6 years 1 day ago

too bad we can't play all the instruments.
lol ur friend sure knows how to crash a song though

Suteki Da Ne 6 years 1 day ago

wat book was it man

Type C 6 years 1 day ago

Awesome song

Another Marbule 6 years 1 day ago

great score man. this is one of my favorite songs

Radical Dreamers 6 years 1 day ago

It has a lot of feeling man.
Where'd you get the background music in order to play the song?

Promise 6 years 1 day ago

gd tab but i think the actual thing sounds very plain and it is extremely repetitive :( lol

Ascension Theme 6 years 1 day ago

replace the insanely high notes with harmonics...

Live and Learn 6 years 1 day ago

Sounds Great!

Kefka's Theme 6 years 1 day ago

they're good but they don't tell you the durations of the notes

All Victory Themes 6 years 2 days ago

Interesting thing, really. The bass and drums are programmed in FL Studio 8. The guitars, however, are real.

I used my DigiTech RP350 effects processor to record the guitars directly to Audacity (an open-source audio editor, go figure).

For the bass and drums, not bad for digital instruments, eh?

Frog's Theme 6 years 2 days ago

good good good

Makafushigi Adventure 6 years 2 days ago

Great tab. There was couple things I noticed though.

I think:

E||--4-5-7-9-----
B||--------------
G||--------------
D||--------------
A||--------------
E||--------------

Should be

E||--2-4-5-7-9-----
B||----------------
G||----------------
D||----------------
A||----------------
E||----------------

And also, there's a missing note in this segment:

|---------4----7---5--4--|
|--5---7-----------------|
|------------------------|
|------------------------|
|------------------------|
|------------------------|

Which I believe is

|---------4-5---7---5--4--|
|--5---7------------------|
|-------------------------|
|-------------------------|
|-------------------------|
|-------------------------|

That's all I noticed. Great tab overall. d(^.^d)

Fatalize 6 years 2 days ago

wats the pdf?

Promise to the World 6 years 2 days ago

Thnx a lot!!! I was listening to the song and decided to look for it cuz I wanted to learn it and I did so thanx a lot!!!!

Really a ppreciate it, keep up the good tabbing!!!

Night of Seclusion 6 years 2 days ago

one werd: woop :)

Title Song 6 years 2 days ago

can u do one for electric guitar plz? ty

Tank! 6 years 2 days ago

The best place to find audio files for Final Fantasy is here : http://www.ffdream.com/downld-musiques.html
You can download all FF soundtrack for free (game version, and other like the "Piano Collection" albums, remixed versions and Black Mages' covers).
Great tab, as always.

Barrett's Theme 6 years 2 days ago

Yeah, I wondered if you were listening to a midi instead of the actual OST. You've gotta be careful with midis as they are only as accurate as the person who wrote them out.

Barrett's Theme 6 years 2 days ago

Most are from www.vgmusic.com. Anyway, never rely on MIDIs you found on the web. :P

Barrett's Theme 6 years 2 days ago

Oh weird.. in that one it is the same note twice. The midi on this site is a little different then!

Just where do the midi's on this site come from?

Barrett's Theme 6 years 2 days ago

start by strumming an Em chord...

Shadow 6 years 2 days ago

lol. sorry about that, yoshi :)

Zora's Domain 6 years 2 days ago

actually the 3 2 2 's right (but i play it 8 7 6 on the D-B strings..) that was the hardest 3 notes to figure out! it sounds different i think due to the bass notes under it.

Battle Theme 6 years 2 days ago

s = sixteenth note
e = eighth note
t = thirty-second note
x = ? i think sixty-fourth note...

Gerudo Valley 6 years 3 days ago

Positive. Here, I slowed down just that part from the original soundtrack so you can hear it better.

http://two.xthost.info/kabukibear/barr.mp3

Don't try playing along with it though, my arrangement is in a different key than this original.

Barrett's Theme 6 years 3 days ago

Pretty good, I love this song =]

Ingo's Theme 6 years 3 days ago

Saria's song is basically the same as the Lost Woods but Saria's song has different parts in it.

Epona's Song 6 years 3 days ago

Heh, you sure? My ears have told me differently.

Barrett's Theme 6 years 3 days ago