Login or Register to remove this ad. | Advertise Here

Recent comments

Comment Posted on Submittedsort icon

yamsa said

I borrowed a guitar from a friend, and have played some of it now, but I find the part at 0:18 weird, it doesn't sound quite right to me.

Ah, I know. I wasn't quite sure at that part when I made the TAB.
If you listen closely to the track, you'll hear that the notes are somehow the same if you know what I mean.
But it does indeed sound slightly inaccurate at that part.

Dearly Beloved 7 years 11 weeks ago

simple sounds right

Far Off Promise 7 years 11 weeks ago

It's a little difficult to play on one string.

Here We Go 7 years 11 weeks ago

I borrowed a guitar from a friend, and have played some of it now, but I find the part at 0:18 weird, it doesn't sound quite right to me.

Dearly Beloved 7 years 11 weeks ago

yamsa said

No, I still need to by new strings

Well, don't sweat it :D

Dearly Beloved 7 years 11 weeks ago

Good job man :D i like the lower version of this :D

Terra 7 years 11 weeks ago

No, I still need to by new strings

Dearly Beloved 7 years 11 weeks ago

yamsa said

looks nice, but can't play it at the moment, cause one of mah strings just snapped...

Ow, that sucks dude xD
Can you play it now :D

Dearly Beloved 7 years 11 weeks ago

My guitar's one fret too short...
But it's extremely accurate, good job!

Title Screen 7 years 11 weeks ago

Really good!

Pokemon Theme Song 7 years 11 weeks ago

check this is the original tab

is my creationXDD

------------------------------------4--6-8-11--8--6-8-10--11--11--10--
---4-3-----4-6-8--6-8--4-6-------------------------------------------------
-------3-5----------------------------------------------------------------------
----------------------------------------------------------------------------------
----------------------------------------------------------------------------------
----------------------------------------------------------------------------------

enjoy it l..l_

Father and Son 7 years 11 weeks ago

Hehe nice tab XD

Wicked Child 7 years 11 weeks ago

FYI I actually used Ice Climberseses tab for this one, I didn't do it by ear.

http://www.gametabs.net/nes/castlevania/wicked-child-bass

Auriplane, Juja, CpxAzn - Castlevania: Wicked Child 7 years 11 weeks ago

I'll try that next time I post a tab and accidently leave out a section ;)

AntiMatter 7 years 11 weeks ago

I was in the process of tabbing this but it's ridiculously hard to play so I gave up, I'm talking about the intro BTW.

Here's what I tabbed before I stopped

     S S  S S  S  S S  S S  S  S  S S S  S S  
E||------------------------------------------|
B||-------------------12---10----------------|
G||------11---12-11-----------12-11-----11---|
D||----9----9-------9----9------------9----9-|
A||--7------------------------------7--------|
E||------------------------------------------|


   S  S  S S S  S S  S S S  S S  S  S S  S  
-------------------------------------------|
----------------------------------------12-|
--12-11-12--------9-11-----11---12-11------|
-----------7-9-12--------9----9-------9----|
-----------------------7-------------------|
-------------------------------------------|


  S  S  S  S S S  S S  S  S  S  S  S S S S  
-------------------------------------------|
----10----------------------10-------------|
-------12-11-----11---12-11----12-11-7-9---|
--9------------9----9--------------------7-|
-------------7-----------------------------|
-------------------------------------------|


  S S  S S  S  S S  S S  S  S  S S S  S S  
------------------------------------------|
-------------------12---10----------------|
------11---12-11-----------12-11-----11---|
----9----9-------9----9------------9----9-|
--7------------------------------7--------|
------------------------------------------|


   S  S  S S S  S S  S S S  S S  S  S S  S  
-------------------------------------------|
----------------------------------------12-|
--12-11-12--------9-11-----11---12-11------|
-----------7-9-12--------9----9-------9----|
-----------------------7-------------------|
-------------------------------------------|


  S  S  S  S S S  S S  S  S S  S  S  S  S  S   
---------------------------------------------||
----10------------------------------10-12----||
-------12-11-----11---12-11---11-12-------11-||
--9------------9----9-------9----------------||
-------------7-------------------------------||
---------------------------------------------||
Falling Down 7 years 11 weeks ago

Either my guitar is out of tune or its not quite right that third part :P
even though a god tab^^

PS(Cudos for the first to make one;))

Get it Together 7 years 11 weeks ago

It helps wiht that longer stretch :) thanks

Minuet of Forest 7 years 11 weeks ago

Try putting <pre> and </pre> around the stuff you want formatted monospace.

AntiMatter 7 years 11 weeks ago

Great TAB, very accurate.

And even greater music! (sorry, it just is) =D

The Sunlit Earth 7 years 11 weeks ago

I'm so gonna' go Super Saiyan after learning this =D

Sounds great so far.

Ascension Theme 7 years 11 weeks ago

I accidently forgot to add one line of tab (I failed at my first one...)

Here it is, this comes right after "main riff 1" (both times, listen to mp3 or video for better understanding...) and before "main riff 2"

e -----------------------------------
B -----------------------------------
G ---------------------12-16-14------
D /14-12--------14-12--------------12
A ---------12------------------------
E -----------------------------------

EDIT: well gametabs' comment system must hate me... the 12 one the D and the 12 on the G strings are not a chord, you play the one on the D, then move up to the G... Check the Video or listen to the MP3 if you don't get what I mean...

Also, the ending, it is supposed to be a "577" chord on the EAD strings... I guess the notepad didn't like the way I had it formatted and decided to fix the tab like it saw fit... *sigh* Oh well, just watch or listen, most of the formatting issues are easy to figure out ;)

AntiMatter 7 years 11 weeks ago

Valestein Castle 7 years 11 weeks ago

Very nice tab until I hit this:

--5--
--4--
--5--
--7--
--0--
-----

It made me cry.

Yuna's Theme 7 years 11 weeks ago

Flawless in my opinion!

Pokemon Center 7 years 11 weeks ago

I can't believe I missed this one before! Way too much fun, and easy to play!

Thank you!

Rebel Army Theme 7 years 11 weeks ago

As a member of the judging panel I had a closer look at this.
1st: I'm missing a few bars from the original song. Did you remove them on purpose?
2nd: second line, first bar:

  |--3--|            
  E  E  E  Q    Q    E.  S 
---------------------------|
---------------------0---1-|
--2--0--2-------2----------|
-----------3---------------|
-----------3---------------|
--1------------------------|

The bold chord sounds little off to me.
3rd: Some stretches (1st and 5th fret) make it impossible to keep the flow going. You could try to fix that with Dropped D Tuning, I think you should have a look at that.

Frog's Theme 7 years 11 weeks ago

To me it sounds like there's just A5 and G5 repeating in the background. When the pitch changes, it goes from A5 to B5.

Hidden Village 7 years 11 weeks ago

aah good old times

Rock the Dragon 7 years 11 weeks ago

If you play classical guitar, and not electric.

Loss of Me 7 years 11 weeks ago

great tab^^i like playing this song

Morning in a Mining Village 7 years 11 weeks ago

Fun and easy to play

Breezy 7 years 11 weeks ago

This tab is good even tho im a beginner it seems quite easy :D

Descendant of Shinobi 7 years 11 weeks ago

nice tab

The Place I'll Return to Someday 7 years 11 weeks ago

very good im learning this on guitar now

The Sanctuary of Zi'tah 7 years 11 weeks ago

I love this melody :D

The Cosmic Wheel 7 years 11 weeks ago

that was amazing

The Birth Of God 7 years 11 weeks ago

good song for getting broken up with

Castle in the Mist 7 years 11 weeks ago

Wow, perfect. I'm converting it into sheet music and playing on the piano.( I couldn't find the sheet music ANYWHERE)

Eyes on Me 7 years 11 weeks ago

Nicely Tabbed

Reunion 7 years 11 weeks ago

looks nice, but can't play it at the moment, cause one of mah strings just snapped...

Dearly Beloved 7 years 11 weeks ago

It truly is

Castle in the Mist 7 years 11 weeks ago

THAT... WAS... THE SHIT!!!!!

Mike Tysons Punch Out Medley (Another Punch-Out Medley) 7 years 11 weeks ago

thats the shit awesome guitar dude!!

Windmill Hut arrangement 7 years 11 weeks ago

XD KNOCKEM OUT

Sleep Theme 7 years 11 weeks ago

Just on the last stroke. The last four notes sound like they could use some 'build up', if you know what I mean.

Hikari 7 years 11 weeks ago

ITS ELECTRIFYING!!!! 28th fret are you nuts? rofl

Spark Mandrill's Stage 7 years 11 weeks ago

Different than how I play it, but it is really good!

Traverse Town 7 years 11 weeks ago

fuck yes it rules thanks dude

Zero's Theme 7 years 11 weeks ago

I subscribed to you on YouTube, finally found you =D

This TAB is awesome and so is the song.
I'll be playing this as my sort of classical-style (I think it's difficulty is hard enough) piece for my music solo performance and Canon Rock (contrast).

Thanks =D

Descendant of Shinobi 7 years 11 weeks ago

Great as always, Caleb, Theme B is a great rhythmic piece, and the bass is important in making the piece what it is.

B Theme 7 years 12 weeks ago