Login or Register to remove this ad. | Advertise Here

The Place Where Wishes Come True (Clannad) Guitar Tab

Submitted: Jan 30, 2011 by ChelseaRare

5
Average: 5 (6 votes)
Download | Listen
Game: Clannad
Composer(s): Jun Maeda
Style: Arrangement, Fingerstyle

AutoScroll: Slow | Medium | Fast
The Place Where Wishes Come True                         
Clannad
Tabbed by Chelsea Intal
January 29,2011

Tuning: Drop D (DADGBe)
Tempo: 70 BPM


     E  E       Q    Q    Q       Q    Q    E  E     Q    Q    Q     
E||-----0--||---2---------3----|--2---------2-----|--0--------------|
B||--3-----||-------------3----|-------3----0--3--|-------3----3----|
G||--------||*-------2---------|------------------|------------2----|
D||--------||*--0--------------|-------0----------|-------2---------|
A||--------||------------------|------------------|--0--------------|
D||--------||------------------|--5---------------|-----------------|


  Q    Q    Q       Q    Q    E  E     Q    Q    E  E     Q    Q    E  E   
--2--------------|------------2--0--|--L---------------|---------------2--|
-----------------|--3---------0-----|---------------2--|--3----2----3-----|
-------2----2----|------------------|------------2-----|------------4-----|
--0---------4----|-------0----------|-------2----------|-------0----------|
-----------------|------------------|--0---------------|------------------|
-----------------|--5---------------|------------------|--5---------------|


  Q    Q    E  E     Q    Q    Q       Q    Q    E  E     Q    Q    Q     
--L------------0--|--2---------3----|--2---------2-----|--0--------------|
------------3-----|------------3----|-------3----0--3--|-------3----3----|
-------2----------|-------2---------|------------------|------------2----|
--0---------------|--0--------------|-------0----------|-------2---------|
------------------|-----------------|------------------|--0--------------|
------------------|-----------------|--5---------------|-----------------|


  Q    Q    Q       Q    Q    Q       Q    Q    Q       Q    Q    Q     
--2--------------|-----------------|-----------------|-----------------|
-----------------|--3--------------|--3--------------|--3--------------|
-------2----2----|------------2----|------------2----|-----------------|
--0---------4----|-------0---------|-------2---------|-------0----4----|
-----------------|-----------------|--0---------4----|--2--------------|
-----------------|--5---------5----|-----------------|-----------------|


  Q    Q    Q       Q    Q    Q       Q    Q    Q       Q    Q    Q     
-----------------|-----------------|-----------------|-----------------|
--L--------------|--3--------------|--3--------------|--3--------------|
--4---------2----|------------2----|------------2----|------------0----|
-------4----0----|-------0---------|-------2----5----|--4----0---------|
-----------------|-----------------|--0--------------|------------2----|
-----------------|--5---------5----|-----------------|-----------------|


  ^                                                                     
  H        E  E       H.              Q    Q    Q       Q    Q    Q     
--------------0---||---------------|--5--------------|--0--------------|
--3--------3------||--3------------|-----------------|------------7----|
--2--------------*||--2------------|------------0----|-----------------|
--4--------------*||--4------------|-------0---------|------------7----|
------------------||---------------|-----------------|-------4---------|
--0---------------||--0------------|--5--------------|--4--------------|


  Q    Q    E  E     Q    Q    Q       Q    Q    Q       Q    Q    Q     
--0------------2--|--L--------------|--5---------7----|-----------------|
------------3-----|-----------------|-----------------|--7----5----7----|
------------0-----|-----------------|------------0----|-----------------|
------------------|------------0----|-------0---------|------------7----|
-------2----------|-------0---------|-----------------|-------4---------|
--2---------------|--0--------------|--5--------------|--4--------------|


  Q    Q    Q       Q    Q    Q       H        E  E     Q    Q    Q     
--0--------------|-----------------|--------------0--|--2---------3----|
------------3----|--L----L----L----|--L--------3-----|------------3----|
------------0----|-----------------|-----------------|-------2---------|
-----------------|------------0----|-----------------|--0--------------|
-------2---------|-------0---------|-----------------|-----------------|
--2--------------|--0--------------|-----------------|-----------------|


  Q    Q    E  E     Q    Q    Q       Q    Q    Q       Q    Q    E  E   
--2---------2-----|--0--------------|--2--------------|------------2--0--|
-------3----0--3--|-------3----3----|-----------------|--3---------0-----|
------------------|------------2----|-------2----2----|------------------|
-------0----------|-------2---------|--0---------4----|-------0----------|
------------------|--0--------------|-----------------|------------------|
--5---------------|-----------------|-----------------|--5---------------|


  Q    Q    E  E     Q    Q    E  E     Q    Q    E  E     Q    Q    Q     
--L---------------|---------------2--|--L------------0--|--2---------3----|
---------------2--|--3----2----3-----|------------3-----|------------3----|
------------2-----|------------4-----|-------2----------|-------2---------|
-------2----------|-------0----------|--0---------------|--0--------------|
--0---------------|------------------|------------------|-----------------|
------------------|--5---------------|------------------|-----------------|


  Q    Q    E  E     Q    Q    Q       Q    Q    Q       Q    Q    Q     
--2---------2-----|--0--------------|--2--------------|-----------------|
-------3----0--3--|-------3----3----|-----------------|--3--------------|
------------------|------------2----|-------2----2----|------------2----|
-------0----------|-------2---------|--0---------4----|-------0---------|
------------------|--0--------------|-----------------|-----------------|
--5---------------|-----------------|-----------------|--5---------5----|


  Q    Q    Q       Q    Q    Q       Q    Q    Q       Q    Q    Q     
-----------------|-----------------|-----------------|-----------------|
--3--------------|--3--------------|--L--------------|--3--------------|
------------2----|-----------------|--4---------2----|------------2----|
-------2---------|-------0----4----|-------4----0----|-------0---------|
--0---------4----|--2--------------|-----------------|-----------------|
-----------------|-----------------|-----------------|--5---------5----|


                    ^              
  Q    Q    Q       H.             
-----------------|---------------||
--3--------------|--3------------||
------------2----|--2------------||
-------2----5----|--4------------||
--0--------------|---------------||
-----------------|--0------------||




Duration Legend
---------------
H - half
Q - quarter
E - 8th
. - note dotted


Tablature Legend
----------------
L - tied note

3 comments on The Place Where Wishes Come True

Thanx !!!!!!!! Sad song from

Thanx !!!!!!!!
Sad song from the saddest anime I've ever seen.

great tab! i really like it.

great tab! i really like it. and it's easy. nice arrangements

Another great tab. I'm really

Another great tab. I'm really glad I discovered you, tons of good/new stuff to play.