Login or Register to remove this ad. | Advertise Here

Dango Daikazoku (Clannad) Guitar Tab

Submitted: Oct 07, 2009 by ExplosiveLee

5
Average: 5 (4 votes)
Download | Listen
Game: Clannad
Composer(s): Jun Maeda
Style: Natural harmonics, Transcription

AutoScroll: Slow | Medium | Fast
Title: Dango Daikazoku
Anime/Game: Clannad
Composer: Jun Maeda
Tabber: ExplosiveLee [jonleerulesdude2@hotmail.com]
Made on: 5 October 2009
Style: Acoustic Guitar
Tuning: Half-Step Up
-----------------------

Clannad - Dango Daikazoku
(For the Rhythm check the MP3)

Intro (Harmonic version)
e|--------------------------------------------------------|
B|----------------------12--------------------------------|
G|-------12--12-------------12------------12--12-------12-|
D|---12----------7--7-----------12----12----------7-7-----|
A|-7--------------------------------7---------------------|
E|--------------------------------------------------------|

Into (Normal version)
e|-----3--3--5--5--7--3---------3--3--5--5--3----|
B|-5-3-------------------3--5-3------------------|
G|-----------------------------------------------|
D|-----------------------------------------------|
A|-----------------------------------------------|
E|-----------------------------------------------|

Verse 1
e|-----3--3--5--5--7--3---------3--3--5--5--7--5-|
B|-5-3-------------------3--5-3------------------|
G|-----------------------------------------------|
D|-----------------------------------------------|
A|-----------------------------------------------|
E|-----------------------------------------------|

e|-----3--3--5--5--7--3---------3--3--5-5--3-|
B|-5-3-------------------3--5-3--------------|
G|-------------------------------------------|
D|-------------------------------------------|
A|-------------------------------------------|
E|-------------------------------------------|

Verse 2
e|-8-7-----------5-----------------8-7-----------5-------|
B|------8--5--8-----5--8-----5--8-------8--5--8-----5—-8-|
G|------------------------7------------------------------|
D|-------------------------------------------------------|
A|-------------------------------------------------------|
E|-------------------------------------------------------|

e|-8-7-----------5-----------------------------|
B|------8--5--8-----5--8-----5—8-----8---------|
G|------------------------7-------7-----5--(5)-|
D|---------------------------------------------|
A|---------------------------------------------|
E|---------------------------------------------|

Chorus
e|------------5-5----------5-7--10-5-7---------5-5-----------10-7-|
B|----------8-------8-5--8--------------8-5-8-------8—5—-8-5------|
G|--------7-------------------------------------------------------|
D|-(7)-7----------------------------------------------------------|
A|----------------------------------------------------------------|
E|----------------------------------------------------------------|

e|------------5-5----------5-7--10-5-7-----------------------|
B|----------8-------8-5--8---------------8—-7--5—-5-7-8--7-8-|
G|--------7--------------------------------------------------|
D|-(7)-7-----------------------------------------------------|
A|-----------------------------------------------------------|
E|-----------------------------------------------------------|

Steps to the song:
Intro x1 (Slowly)
Verse 1 x1 
Verse 2 x1 
Chorus x2 (Moderato)

The notes in brackets need not be played; these notes are sometimes hard to fit in
(doesn't sound right when playing it) but they are actually a part of the song.


3 comments on Dango Daikazoku

Awesome tab, excelent job

5

Awesome tab, excelent job

About your song :D

5

Really, great job! It's just what I've been looking so long. My sincere congratulations for your work. Thank you very very very very very very much :D
Really!

correction

5

On Chorus,when it's:

e|------5-5-----------10-7-|
B|8-5-8-------8—5—-8-5-----|

You should play it like this:

e|------5-5--------5-10-7-|
B|8-5-8-------8—5—--8-----|