Login or Register to remove this ad. | Advertise Here

On The Beach of Dreams - Another World (Chrono Cross) Guitar Tab

Submitted: Jan 10, 2010 by hslesperance (Last updated: Feb 17, 2011)

5
Average: 5 (2 votes)
Download | Listen
Game: Chrono Cross
Composer(s): Yasunori Mitsuda
Style: Transcription
Series: Chrono

This song is also called Dream of the Shore Near Another World

AutoScroll: Slow | Medium | Fast
On The Beach of Dreams - Another World
Chrono Cross
Composed by Yasunori Mitsuda
Tabbed by hslesperance
1/10/10

Standard Tuning

e------------10------------------------------------------------
B-------------------------------------------10------------11---
G---7------------------10------------7--10---------------------
D--------------------------------------------------------------
A--------------------------------------------------------------
E--------------------------------------------------------------

e-----------------------------------------10-------------------
B---10h11p10-8-------------------------------------------------
G-------------------------10--9--7------------------10---------
D--------------------------------------------------------------
A--------------------------------------------------------------
E--------------------------------------------------------------

e--------------------------------------------------------------
B----------10------------11----10h11p10-8----------------------
G---7--10--------------------------------------------10--9--7--
D--------------------------------------------------------------
A--------------------------------------------------------------
E--------------------------------------------------------------

e--------------------------------------------------------------
B--------------------------------------------------------------
G---10--------9h10p9-------------------------7--7--------------
D---------------------------10--------7--10--------------------
A--------------------------------------------------------------
E--------------------------------------------------------------

e--------------------------------------------------------------
B------------------------------8------------8------------------
G---7--10--------9h10p9--------------------------7-------9-10-9
D--------------------------------------------------------------
A--------------------------------------------------------------
E--------------------------------------------------------------

h - hammer on
p - pull off

2 comments on On The Beach of Dreams - Another World

Thx again

5

Thx again

Perfect

5

Perfect