Login or Register to remove this ad. | Advertise Here

Dimension Break (Chrono Cross) Guitar Tab

Submitted: Aug 08, 2009 by hslesperance (Last updated: Oct 27, 2012)

5
Average: 5 (3 votes)
Download | Listen
Game: Chrono Cross
Composer(s): Yasunori Mitsuda
Style: Arrangement, Fingerstyle
Series: Chrono

This song is also called A Narrow Space Between Dimensions

AutoScroll: Slow | Medium | Fast
A Narrow Space Between Dimensions
Chrono Cross
Comopsed by Yasunori Mitsuda
Tabbed by hslesperance
8/8/09

Drop-D Tuning (DADGBe)


  Q  E E E E   Q  Q  Q    Q  H      Q  Q  Q    Q  E E E E   Q  Q  Q
|------------|----------|---------|----------|------------|-----------|
|------------|----------|---------|----------|------------|-----------|
|-2----------|-0--------|---------|----------|-2----------|-0-----2---|
|------0-2-4-|-------2--|-0-------|-------0--|------0-2-4-|-0--4------|
|----0-------|----4-----|----0----|----0-----|----0-------|-2--5------|
|-0----------|-0--------|-0--5----|-0--5-----|-0----------|-5---------|


  H.         H     Q    Q  E E E E   Q  Q  Q    H.        Q  Q  Q
|---------|-----------|------------|----------|---------|----------|
|---------|-----------|------------|----------|---------|----------|
|---------|-----------|-2----------|-0--------|---------|----------|
|-2-------|-(2)----0--|------0-2-4-|-------2--|-4-------|----------|
|-5-------|--4--------|----0-------|-2--4-----|-5-------|-2--------|
|---------|-----------|-0----------|----------|-7-------|-0--2--4--|


  H    Q    H    Q    H.         H     E E   Q  Q  Q    H    Q
|---------|---------|---------|------------|----------|---------|
|---------|---------|---------|------------|----3--2--|-0-------|
|---------|---------|---------|----------0-|-2--------|------2--|
|-0----4--|-2----0--|-0-------|-(0)----4---|-4--------|-0-------|
|-2-------|-2-------|-0-------|--0---------|-5--------|---------|
|-5-------|-5-------|-5-------|--4---------|----------|---------|


  H.        Q  Q  Q    Q  Q  Q    Q.   E Q    H.        H    E E
|---------|----------|----------|-----------|---------|----------|
|---------|----------|----0-----|-----------|---------|----------|
|-2-------|-------0--|----------|-----------|---------|--------0-|
|-2-------|-2--4-----|-4-----4--|-0----2-4--|-0-------|------4---|
|-5-------|-4--------|-5--------|-2---------|-7-------|-4--------|
|---------|-5--------|-7--------|-5---------|-7-------|-7--------|


  Q  Q  Q    Q  Q  Q    H    E E   E E H      H.        Q  Q  Q
|----------|----------|----------|----------|---------|----------|
|----3--2--|-0--------|----------|----------|---------|----------|
|-2--------|-------2--|-2--------|---0------|---------|-------0--|
|-4--------|----------|-2----0-2-|-4---4----|-0-------|----4-----|
|-5--------|----2-----|-4--------|-5--------|-0-------|-2--------|
|----------|-5--------|------5---|-7--------|---------|-5--------|


  H.        H    Q    Q  E E E E   Q  Q  Q    Q  H      Q  Q  Q
|---------|---------|------------|----------|---------|----------|
|---------|---------|------------|----------|---------|----------|
|---------|---------|-2----------|-0--------|---------|----------|
|-2-------|---------|------0-2-4-|-------2--|-0-------|-------0--|
|-5-------|-4----0--|----0-------|----4-----|----0----|----0-----|
|-5-------|---------|-0----------|-0--------|-0--5----|-0--5-----|


  Q  E E E E   Q  Q  Q    H.         H     Q    Q  Q  Q    Q  Q  Q
|------------|----------|---------|-----------|----------|-0--------|
|------------|----------|---------|-----------|----3--2--|----3-----|
|-2----------|-0-----2--|---------|-----------|-2--------|-------2--|
|------0-2-4-|-0--4-----|-2-------|-(2)----0--|----------|----------|
|----0-------|-2--5-----|-5-------|--4--------|----------|-2--------|
|-0----------|-5--------|---------|-----------|-0--------|----------|


  Q  H      Q  Q  Q    Q.   E Q    H    Q
|---------|----------|-----------|---------*|
|-2-------|----------|-----------|---------*|
|----2----|----0-----|-----------|---------*|
|----4----|-2-----4--|-2---------|-4-------*|
|-4-------|-0--------|-0----5-4--|-5-------*|
|---------|----------|-5---------|-7-------*|

W - whole note
H - half note
Q - quarter note
E - eighth note
. - dotted note
+ - tied note

1 comment on Dimension Break

Is this the same song as

Is this the same song as Dimension Breach/Break? Either way I likes it.