Login or Register to remove this ad. | Advertise Here

Main Theme (Cheetahmen II) Bass/Guitar Tab

Submitted: Jan 26, 2011 by hslesperance (Last updated: Aug 10, 2012)

5
Average: 5 (3 votes)
Download | Listen
Game: Cheetahmen II
Composer(s): Unknown
Style: 2 or more instruments, Alternate picking, Transcription

AutoScroll: Slow | Medium | Fast
Main Theme
Cheetamen II
Composer Unknown
Tabbed by hslesperance
1/26/11

Standard Tuning




Guitar 1

  W          W          W          W
|----------|----------|----------|------|
|----------|----------|----------|------|
|----------|----------|----------|------|
|----------|----------|----------|------|
|----------|----------|----------|------|
|----------|----------|----------|------|


  W          W          W          W
|----------|----------|----------|------|
|----------|----------|----------|------|
|----------|----------|----------|------|
|----------|----------|----------|------|
|----------|----------|----------|------|
|----------|----------|----------|------|


    E. e.  e. Q  S E    E Q   E Q  e. S   e. e.  E. S E  E E    E Q   E e e e e
||--8----------------|----------9--8----|-8------------------|----------9-8-9-8--||
||o----9-------------|------------------|----9---------------|------------------o||
||--------10-------8-|-10----10---------|-------10----8-10-8-|-10----10----------||
||-------------------|------------------|--------------------|-------------------||
||o------------------|------------------|--------------------|------------------o||
||-------------------|------------------|--------------------|-------------------||


  Q.   S S S S e  e e    e. e.  e. E. Q    Q.   S S S S e  e e    e. e. E. E. Q
|------8-8-9-9-8------|------------------|------8-8-9-9-8------|-----9--8---------|
|----------------11-9-|-11--9------------|----------------11-9-|-11---------------|
|---------------------|--------10--------|---------------------|------------------|
|---------------------|------------------|---------------------|------------------|
|---------------------|------------------|---------------------|------------------|
|---------------------|------------------|---------------------|------------------|


  Q.   S S e e  e e   Q.    S  S  e  e e  e   e Q  S S e e e e    S  S S  e  e  s  Q  Q
|------8-8-9-8------|-----------------------|-8----8-8-9-8-9-8-|-13-13---13-13-13-12-----|
|--------------11-9-|------11-11-11-11-9-11-|------------------|-------------------------|
|-------------------|-----------------------|------------------|-------------------------|
|-------------------|-----------------------|------------------|-------------------------|
|-------------------|-----------------------|------------------|-------------------------|
|-------------------|-----------------------|------------------|-------------------------|


  W          W          W          W
|----------|----------|----------|------|
|----------|----------|----------|------|
|----------|----------|----------|------|
|----------|----------|----------|------|
|----------|----------|----------|------|
|----------|----------|----------|------|


  W          W          W          W
|----------|----------|----------|------|
|----------|----------|----------|------|
|----------|----------|----------|------|
|----------|----------|----------|------|
|----------|----------|----------|------|
|----------|----------|----------|------|


     E  s s  e  e     e    e e s s    E  e  E.     s s e  e.    e
||------8----8--9----11----9-8-9-8-|-----------------8---------------|
||o-------9------------------------|-----9---------9---9--------9----|
||---------------------------------|---------------------10----------|
||---------------------------------|---------------------------------|
||o--------------------------------|---------------------------------|
||---------------------------------|---------------------------------|
|
| Guitar 2
|    e  e    e  s  e    E.   Q        e  e  e   s  e   E  e   e    s
||--13------13-16-13---------------|-13----13--16-13---------13---16-|
||o----13--------------------------|----13---------------13----------|
||---------------------------------|---------------------------------|
||---------------------------------|---------------------------------|
||o--------------------------------|---------------------------------|
||---------------------------------|---------------------------------|


   E  s s  e  e     e    e e s s    Q.        S  s s e  e.   e
|-----8----8--9----11----9-8-9-8-|---------------8-9-8--9----8--||
|-------9------------------------|-----------------------------o||
|--------------------------------|------------------------------||
|--------------------------------|------------------------------||
|--------------------------------|-----------------------------o||
|--------------------------------|------------------------------||
|
|  e  e    e  s  e    E.   Q        e   e  e  s  e   E.    Q
|-13------13-16-13---------------|-13-----13-16-13--------------||
|----13--------------------------|-----13----------------------o||
|--------------------------------|------------------------------||
|--------------------------------|------------------------------||
|--------------------------------|-----------------------------o||
|--------------------------------|------------------------------||


    E. e.  e. Q  S E    E Q   E Q  e. S   e. e.  E. S E  E E    E Q   E e e e e
||--8----------------|----------9--8----|-8------------------|----------9-8-9-8--||
||o----9-------------|------------------|----9---------------|------------------o||
||--------10-------8-|-10----10---------|-------10----8-10-8-|-10----10----------||
||-------------------|------------------|--------------------|-------------------||
||o------------------|------------------|--------------------|------------------o||
||-------------------|------------------|--------------------|-------------------||


  Q.   S S S S e  e e    e. e.  e. E. Q    Q.   S S S S e  e e    e. e. E. E. Q
|------8-8-9-9-8------|------------------|------8-8-9-9-8------|-----9--8---------|
|----------------11-9-|-11--9------------|----------------11-9-|-11---------------|
|---------------------|--------10--------|---------------------|------------------|
|---------------------|------------------|---------------------|------------------|
|---------------------|------------------|---------------------|------------------|
|---------------------|------------------|---------------------|------------------|


  Q.   S S e e  e e   Q.    S  S  e  e e  e   e Q  S S e e e e    S  S S  e  e  s  Q  Q
|------8-8-9-8------|-----------------------|-8----8-8-9-8-9-8-|-13-13---13-13-13-12-----|
|--------------11-9-|------11-11-11-11-9-11-|------------------|-------------------------|
|-------------------|-----------------------|------------------|-------------------------|
|-------------------|-----------------------|------------------|-------------------------|
|-------------------|-----------------------|------------------|-------------------------|
|-------------------|-----------------------|------------------|-------------------------|


     e  e E e Q.    e   e e E e e. S e. S   e e E e Q.   e   e e E e e. S e. S
||----------8---------|---------9----8----|-------8--------|---------9----8----|
||o-------------------|-------------------|----------------|-------------------|
||--10-10----------10-|-9-9---9-----------|-8-8----------8-|-7-7---7-----------|
||--------------------|-------------------|----------------|-------------------|
||o-------------------|-------------------|----------------|-------------------|
||--------------------|-------------------|----------------|-------------------|


  e e E e Q.   e   e e E e e E e e   e e E e Q.   e   e e E e e e e e
|-------8--------|---------9---8---|-------8--------|-------------9-8---||
|----------------|-----------------|----------------|------------------o||
|-6-6----------6-|-5-5---5-------5-|-6-6----------6-|-8-8---8-9-9-------||
|----------------|-----------------|----------------|-------------------||
|----------------|-----------------|----------------|------------------o||
|----------------|-----------------|----------------|-------------------||


     E  s s  e  e     e    e e s s    E  e  E.     s s e  e.    e
||------8----8--9----11----9-8-9-8-|-----------------8---------------|
||o-------9------------------------|-----9---------9---9--------9----|
||---------------------------------|---------------------10----------|
||---------------------------------|---------------------------------|
||o--------------------------------|---------------------------------|
||---------------------------------|---------------------------------|
|
| Guitar 2
|    e  e    e  s  e    E.   Q        e  e  e   s  e   E  e   e    s
||--13------13-16-13---------------|-13----13--16-13---------13---16-|
||o----13--------------------------|----13---------------13----------|
||---------------------------------|---------------------------------|
||---------------------------------|---------------------------------|
||o--------------------------------|---------------------------------|
||---------------------------------|---------------------------------|


   E  s s  e  e     e    e e s s    Q.        S  s s e  e.   e
|-----8----8--9----11----9-8-9-8-|---------------8-9-8--9----8--||
|-------9------------------------|-----------------------------o||
|--------------------------------|------------------------------||
|--------------------------------|------------------------------||
|--------------------------------|-----------------------------o||
|--------------------------------|------------------------------||
|
|  e  e    e  s  e    E.   Q        e   e  e  s  e   E.    Q
|-13------13-16-13---------------|-13-----13-16-13--------------||
|----13--------------------------|-----13----------------------o||
|--------------------------------|------------------------------||
|--------------------------------|------------------------------||
|--------------------------------|-----------------------------o||
|--------------------------------|------------------------------||




Bass

    e. e. e. S E E E   e. e. E S S S S S S S S
||-------------------|-----------------3---3---|
||o-3--3--3----3-3-4-|-3--3--3-----------6---6-|
||o------------------|---------6-3-6-3---------|
||-------------------|-------------------------|


  e. e. e. S E E E   e. e. E S S S S S S S S   4x
|------------------|-----------------3---3-----||
|-3--3--3----3-3-4-|-3--3--3-----------6---6--o||
|------------------|---------6-3-6-3----------o||
|------------------|---------------------------||


  e. e. e. Q  S e   E. e. E. Q  S e   E. e. E. Q  S e   E. E. E. E. e e
|-----------------|-----------------|-----------------|-----------------|
|-6--6--6---------|-5--5--5-------6-|-3--3--3---------|-3--3--3-----3-5-|
|---------------6-|-----------------|---------------6-|-----------------|
|-----------------|-----------------|-----------------|-----------------|


  e. e. e. S e e e   e. e. e. S e S s e   e. e. e. S e e e   e. e. e. S e e e
|------------------|-3--3--3----3-----3-|-5--5--5----5-5-6-|-5--5--5----5-5-5-|
|-6--6--6----6-5-6-|----------------6---|------------------|------------------|
|------------------|--------------------|------------------|------------------|
|------------------|--------------------|------------------|------------------|


    s s s s s S e S e s E E   s s s s s S e S e S E E
||--------------------------|-------------------------|
||o-3-3-3-3-3---3---3-3-3-4-|-3-3-3-3-3---3---3---3---|
||o-------------------------|-----------------------6-|
||--------------------------|-------------------------|


  s s s s s S e S e s E E   s s s s s S e S e S E E   4x
|-------------------------|---------------------------||
|-3-3-3-3-3---3---3-3-3-4-|-3-3-3-3-3---3---3-3-3----o||
|-------------------------|-----------------------6--o||
|-------------------------|---------------------------||


    e. e. e. S E E E   e. e. E S S S S S S S S
||-------------------|-----------------3---3---|
||o-3--3--3----3-3-4-|-3--3--3-----------6---6-|
||o------------------|---------6-3-6-3---------|
||-------------------|-------------------------|


  e. e. e. S E E E   e. e. E S S S S S S S S
|------------------|-----------------3---3----||
|-3--3--3----3-3-4-|-3--3--3-----------6---6-o||
|------------------|---------6-3-6-3---------o||
|------------------|--------------------------||


  e. e. e. Q  S e   E. e. E. Q  S e   E. e. E. Q  S e   E. E. E. E. e e
|-----------------|-----------------|-----------------|-----------------|
|-6--6--6---------|-5--5--5-------6-|-3--3--3---------|-3--3--3-----3-5-|
|---------------6-|-----------------|---------------6-|-----------------|
|-----------------|-----------------|-----------------|-----------------|


  e. e. e. S e e e   e. e. e. S e S s e   e. e. e. S e e e   e. e. e. S e e e
|------------------|-3--3--3----3-----3-|-5--5--5----5-5-6-|-5--5--5----5-5-5-|
|-6--6--6----6-5-6-|----------------6---|------------------|------------------|
|------------------|--------------------|------------------|------------------|
|------------------|--------------------|------------------|------------------|


    s s s s s s s s s s s s s s s s   S s e e e E e e e
||----------------------------------|-------------------|
||o-3-3-3-3-6-3-3-3-3-3-6-3-3-3-6-3-|---2-2-6-2---2-6-2-|
||o---------------------------------|-------------------|
||----------------------------------|-------------------|


  s s s s s s s s s s s s s s s s   S s e e e E e e e
|---------------------------------|----------------------|
|---------6-----------6-------6---|-------6-------6------|
|-6-6-6-6---6-6-6-6-6---6-6-6---6-|---5-5---5---5---5----|
|---------------------------------|----------------------|


  s s s s s s s s s s s s s s s s   e e e s s S e e s e
|---------------------------------|---------------------|
|---------6-----------6-------6---|-----6-----------6---|
|-4-4-4-4---4-4-4-4-4---4-4-4---4-|-3-3---3-3---3-3---3-|
|---------------------------------|---------------------|


  s s s s s s s s s s s s s s s s   e e e s s S e s e e
|---------------------------------|------------------------||
|---------6-----------6-------6---|---------2---2-2-6-2---o||
|-4-4-4-4---4-4-4-4-4---4-4-4---4-|-6-6-6-6---------------o||
|---------------------------------|------------------------||


    s s s s s S e S e s E E   s s s s s S e S e S E E
||--------------------------|-------------------------|
||o-3-3-3-3-3---3---3-3-3-4-|-3-3-3-3-3---3---3---3---|
||o-------------------------|-----------------------6-|
||--------------------------|-------------------------|


  s s s s s S e S e s E E   s s s s s S e S e S E E
|-------------------------|---------------------------||
|-3-3-3-3-3---3---3-3-3-4-|-3-3-3-3-3---3---3-3-3----o||
|-------------------------|-----------------------6--o||
|-------------------------|---------------------------||

W - whole
H - half
Q - quarter
E - 8th
S - 16th
. - note dotted

Uncapitalized letters represent notes that are staccato (1/2 duration)