Login or Register to remove this ad. | Advertise Here

Balrog's Theme (Cave Story) Bass Tab

Submitted: Jul 16, 2009 by Maximillian (Last updated: Jul 16, 2009)

5
Average: 5 (1 vote)
Download | Listen
Game: Cave Story
Composer(s): Daisuke Amaya
Style: Transcription

AutoScroll: Slow | Medium | Fast
#----------------------------------PLEASE NOTE---------------------------------#
#This file is the author's own work and represents their interpretation of the #
#song. You may only use this file for private study, scholarship, or research. #
#------------------------------------------------------------------------------##

                                    (Bassline)

Title: Cave Story - Balrog's Theme
Originally Composed by Pixel
Transcribed by Maximilian on 7/14/09

Gtr I (E A D G) - 'Untitled'

    Q=180
   4/4
    Gtr I
    q  q  q  q   q  q  q  e e   q  q  q  q   q  q  q  e e
||--5-----5----|-5-----5------|-3-----3----|-3-----3----3-|
||o----5-----5-|----5-----5-6-|----3-----3-|----3-----5---|
||o------------|--------------|------------|--------------|
||-------------|--------------|------------|--------------|


  q  q  q  q    q  q  e e e e   q  q  q  q    q  q  q  e e
|-5-----5-----|-5-----5-5-3-5-|-3-----3-----|-3-----3----3-|
|----5-----5--|----5----------|----3-----3--|----3-----5---|
|-------------|---------------|-------------|--------------|
|-------------|---------------|-------------|--------------|


  E E E E E E E E   E E E E E E E E   E E E E E E E E   E E E E E E E E
|-----------------|-----------------|-----------------|-----------------|
|-----------------|-----------------|-----------------|-----------------|
|-3-3-3-3-3-3-3-3-|-3-3-3-3-3-3-3-3-|-3-3-3-3-3-3-3-3-|-3-3-3-3-3-3-3-3-|
|-----------------|-----------------|-----------------|-----------------|


  E E E E E E E E   E E E E E E E E   E E E E E E E E   E E E E E E E E
|-----------------|-----------------|-----------------|---5-5-4-3-3-2-1--||
|-----------------|-----------------|-----------------|-----------------o||
|-3-3-3-3-3-3-3-3-|-3-3-3-3-3-3-3-3-|-3-3-3-3-3-3-3-3-|-3---------------o||
|-----------------|-----------------|-----------------|------------------||


Duration Legend
---------------
W - whole; H - half; Q - quarter; E - 8th; S - 16th; T - 32nd; X - 64th; a - acciaccatura
+ - note tied to previous; . - note dotted; .. - note double dotted
Uncapitalized letters represent notes that are staccato (1/2 duration)
Irregular groupings are notated above the duration line
Duration letters will always appear directly above the note/fret number it represents the
duration for.  Duration letters with no fret number below them represent rests.  Multi-
bar rests are notated in the form Wxn, where n is the number of bars to rest for.  Low
melody durations appear below the staff

Tablature Legend
----------------
 h   - hammer-on
 p   - pull-off
 b   - bend
 pb  - pre-bend
 r   - bend release (if no number after the r, then release immediately)
 /\  - slide into or out of (from/to "nowhere")
 s   - legato slide
 S   - shift slide
  - natural harmonic
[n]  - artificial harmonic
n(n) - tapped harmonic
 ~   - vibrato
 tr  - trill
 T   - tap
 TP  - trem. picking
 PM  - palm muting
\n/  - tremolo bar dip; n = amount to dip
 \n  - tremolo bar down
 n/  - tremolo bar up
/n\  - tremolo bar inverted dip
 =   - hold bend; also acts as connecting device for hammers/pulls
 <>  - volume swell (louder/softer)
 x   - on rhythm slash represents muted slash
 o   - on rhythm slash represents single note slash

Misc Legend
-----------
 |  - bar
||  - double bar
||o - repeat start
o|| - repeat end
*|  - double bar (ending)
 :  - bar (freetime)
 $  - Segno
 &  - Coda
Tempo markers -  = BPM(8/16=s8/s16), where s8 = swing 8ths, s16 = swing 16ths


***************************************************************************************
* Generated using Power Tab Editor by Brad Larsen - http://powertab.guitarnetwork.org *
***************************************************************************************