Login or Register to remove this ad. | Advertise Here

Vampire Killer (Castlevania) Guitar Tab

Submitted: Apr 24, 2011 by Max_depa

5
Average: 5 (3 votes)
Download | Listen
Game: Castlevania
Composer(s): Kinuyo Yamashita
Style: Arrangement, Fingerstyle
Series: Castlevania

AutoScroll: Slow | Medium | Fast
Vampire Killer - Castlevania
Arranged by: Max_depa

Thanks to hslesperance for the help with measure 6 and 8!


     S S S S S S E  E  E  S S S S    E  S S E  E  S S E  E  E   
E||-------------------------------|----------------------------|
B||--3-3---1---0------------------|-----------------1-1--------|
G||--------0---0----------------0-|--2------3--2--0-0-0--------|
D||--0---0---0---0--0--0----2-3---|--0----0--------------------|
A||-----------------------3-------|--1--1---1--1--3------3--3--|
E||-------------------------------|----------------------------|


  S S S S S S E  E  E  S S S S    E  S S E  E  S S E  E  E   
-------------------------------|----------------------------|
--3-3---1---0------------------|-----------------1-1--------|
--------0---0----------------0-|--2------3--2--0-0-0--------|
--0---0---0---0--0--0----2-3---|--0----0--------------------|
-----------------------3-------|--1--1---1--1--3------3--3--|
-------------------------------|----------------------------|


  E  E  S E  S S S S S E  E     E  S E  S E  S S S E  E.   
----------5----4-5-4-1-------|--5--5-4--4-3--5------------|
-----3----3----2-3-2---------|-----------------6---8--8---|
-----2---------------2-------|-------------------7--------|
--0--0--0----0---------0--0--|----------------------------|
-----------------------------|----------------------------|
-----------------------------|--6----6----6--6---6-8--8---|


  E  E  S E  S S S S S E  E     E  S E  S E  S S S E  E.   
----------5----4-5-4-1-------|--5--5-4--4-3--5------------|
-----3----3----2-3-2---------|-----------------6---8--8---|
-----2---------------2-------|-------------------7--------|
--0--0--0----0---------0--0--|----------------------------|
-----------------------------|----------------------------|
-----------------------------|--6----6----6--6---6-8--8---|


  ^          ^             ^          ^             ^          ^           
  E.  E.  E  E.  E.  E     E.  E.  E  E.  Q    S    E.  E.  E  E.  E.  E   
------0---6--5----------|------0---6--5----------|------0---6--5----------|
--2---2---5------6---3--|--2---2---5--3---3----L-|--2---2---5------6---3--|
--3----------7----------|--3--------------2----L-|--3----------7----------|
-----------------7---3--|--2----------0----------|-----------------7---3--|
--4----------5----------|------------------------|--4----------5----------|
------------------------|------------------------|------------------------|


  ^          ^                                         
  E.  E.  E  E.  E.  E      S  S  S  E  S E  H         
--0---3---6--5---7---9--|--10-10----------------------|
------2---5--2---5---8--|--10-10----------------------|
--3----------2----------|-----------------------------|
--2---------------------|--------12-12--0----0--------|
------------------------|--------12-12----3-----------|
------------------------|--10----10-------------------|


  E  E  S E.  E  E  S E.      S  S  S  E  S E  H         
--------------------------|--10-10----------------------|
--------------------------|--10-10----------------------|
----------------------0---|-----------------------------|
--------0-3---------2-2---|--------12-12--0----0--------|
--1--1--1-5---3--3--3-----|--------12-12----3-----------|
--1--1--------3--3--------|--10----10-------------------|


  E  E  S E.  E  E  S E.     
---------------------------||
---------------------------||
--------------------------*||
--------0-3---------------*||
--1--1--1-5---3--3--0-3----||
--1--1--------3------------||




Duration Legend
---------------
W - whole
H - half
Q - quarter
E - 8th
S - 16th
T - 32nd
X - 64th
. - note dotted
|-n-|  - n-tuplets


Tablature Legend
----------------
L - tied note
x - dead note
g - grace note
(n) - ghost note
> - accentuded note
NH - natural harmonic
AH - artificial harmonic
TH - tapped harmonic
SH - semi harmonic
PH - pitch harmonic
h - hammer on
p - pull off
b - bend
br - bendRelease
pb - preBend
pbr - preBendRelease
brb - bendReleaseBend
\n/ - tremolo bar dip
\n - tremolo bar dive
-/n - tremolo bar Release up
/n\ - tremolo bar inverted dip
/n - tremolo bar return
-\n - tremolo bar Release down
S - shift slide
s - legato slide
/ -  slide into from below or out of upwards
\ -  slide into from above or out of downwards
~ - vibrato
W - wide vibrato
tr - trill
TP - tremolo picking
T - tapping
S - slap
P - pop
< - fade in
^ - brush up
v - brush down