Login or Register to remove this ad. | Advertise Here

Poison Mind (Castlevania) Guitar Tab

Submitted: May 31, 2011 by Sgt Reed

5
Average: 5 (2 votes)
Download | Listen
Game: Castlevania
Composer(s): Kinuyo Yamashita
Style: 2 or more instruments, Alternate picking, Transcription
Series: Castlevania

This song is also called Boss Theme

AutoScroll: Slow | Medium | Fast
Castlevania Boss Battle
Nintendo 1986
Kinuyo Yamashita
Tabbed by Sgt Reed


					Melody

|-----15----15----15----15----15-13-15----15-13-15----15-13-15----15-13-15----15-13-15------15-13-15-|
|--13----16----13----16----15----------15----------13----------13----------13----------13------------|
|----------------------------------------------------------------------------------------------------|
|----------------------------------------------------------------------------------------------------|
|----------------------------------------------------------------------------------------------------|
|----------------------------------------------------------------------------------------------------|

|-----16-13-16----16-13-16----15----15----15----15----15-13-15----15-13-15----15-13-15----15-13-15---|
|--13----------13----------13----16----13----16----15----------15----------13----------13------------|
|----------------------------------------------------------------------------------------------------|
|----------------------------------------------------------------------------------------------------|
|----------------------------------------------------------------------------------------------------|
|----------------------------------------------------------------------------------------------------|


					Harmony

|--15-----15-----15-----15-----15-----15-----15-----15-----15-----15-----15-----15-----15----15----15|
|----------------------------------------------------------------------------------------------------|
|----------------------------------------------------------------------------------------------------|
|----------------------------------------------------------------------------------------------------|
|----------------------------------------------------------------------------------------------------|
|----------------------------------------------------------------------------------------------------|


					Bass

|---------------------------------|
|---------------------------------|
|---------------------------------|
|----------------------5----------|
|--3---2---3---6---8-------2---3--|
|---------------------------------|