Login or Register to remove this ad. | Advertise Here

Requiem for the Nameless Victims (Castlevania: Bloodlines) Bass/Guitar Tab

Submitted: Aug 12, 2010 by DSheltonator

5
Average: 5 (4 votes)
Download | Listen
Game: Castlevania: Bloodlines
Composer(s): Michiru Yamane
Style: 2 or more instruments, Arrangement, Pinch harmonics, Transcription, Trill
Series: Castlevania

AutoScroll: Slow | Medium | Fast
Requiem for the Nameless Victims
Dracula Battle
(Castlevania Bloodlines credits theme)
Tabbed by DSheltonator
8/10/2010

See zip file for .pdf!


Lead Guitar



E||-------|-------|-------|-------|-------|-------|-------|-------|-------|
B||-------|-------|-------|-------|-------|-------|-------|-------|-------|
G||-------|-------|-------|-------|-------|-------|-------|-------|-------|
D||-------|-------|-------|-------|-------|-------|-------|-------|-------|
A||-------|-------|-------|-------|-------|-------|-------|-------|-------|
E||-------|-------|-------|-------|-------|-------|-------|-------|-------|


-------|-------|-------|-------|-------|-------|-------|-------|-------|-------|
-------|-------|-------|-------|-------|-------|-------|-------|-------|-------|
-------|-------|-------|-------|-------|-------|-------|-------|-------|-------|
-------|-------|-------|-------|-------|-------|-------|-------|-------|-------|
-------|-------|-------|-------|-------|-------|-------|-------|-------|-------|
-------|-------|-------|-------|-------|-------|-------|-------|-------|-------|


             H        E   E     H        Q          Q     H          
-------|---------------------|----------------|---------------------|
-------|---------------------|----------------|---------------------|
-------|---------------------|-----------8----|---------------------|
-------|--8g10--------8s--6--|--8-------------|--8g10-----L~--------|
-------|---------------------|----------------|---------------------|
-------|---------------------|----------------|---------------------|


   Q     Q     E  E        H        E   E     Q     Q    Q     
---------------------|---------------------|------------------|
---------------------|---------------------|------------------|
---------------------|---------------------|-------------8----|
---L-----L\----6--8--|--8g10--------8s--6--|--8s----6---------|
---------------------|---------------------|------------------|
---------------------|---------------------|------------------|


     Q     H             Q     Q      Q           H         E   E   
---------------------|---------------------|-----------------------|
---------------------|---------------------|-----------------------|
---------------------|---------------------|-----------------------|
--8g10-----L~--------|---L----11h----13----|--13g15--------13--11--|
---------------------|---------------------|-----------------------|
---------------------|---------------------|-----------------------|


   H        Q         H         E    E     H         E   E      H.            
------------------|---------------------|-------------------|----------------|
------------------|---------------------|-------------------|----------------|
------------------|---------------------|-------------------|----------------|
--10--------8b----|--10-----------------|-------------------|----------------|
------------------|------------11p--10--|--8~--------8--10--|--11------------|
------------------|---------------------|-------------------|----------------|


   H        Q        Q     H             H         Q           H        E   E   
-----------------|-------------------|-------------------|---------------------|
-----------------|-------------------|-------------------|---------------------|
-----------------|-------------------|-------------------|---------------------|
------------9----|--10-----L~--------|---L---------L\----|--8g10--------8s--6--|
--10-------------|-------------------|-------------------|---------------------|
-----------------|-------------------|-------------------|---------------------|


  Q     Q    Q          Q     H             Q     Q     E  E   
------------------|---------------------|---------------------|
------------------|---------------------|---------------------|
-------------8----|---------------------|---------------------|
--8s----6---------|--8g10-----L~--------|---L-----L\----6--8--|
------------------|---------------------|---------------------|
------------------|---------------------|---------------------|


     H        S   S  S  S    H        E  E        Q     H          
--------------------------|-----------------|---------------------|
--------------------------|-----------------|---------------------|
--------------------------|-----------8-----|---------------------|
--8g10--------8h-10p-8s-6-|--8-----------8--|--8g10-----L~--------|
--------------------------|-----------------|---------------------|
--------------------------|-----------------|---------------------|


   Q     Q      Q           H         E   E      H        Q     
---------------------|-----------------------|-----------------|
---------------------|-----------------------|-----------------|
---------------------|-----------------------|-----------------|
---L----11h----13----|--13g15--------13--11--|--10--------8----|
---------------------|-----------------------|-----------------|
---------------------|-----------------------|-----------------|


   E    S   S E  E   E   E       H         E   E      H.            
----------------------------|---------------------|----------------|
----------------------------|---------------------|----------------|
----------------------------|---------------------|----------------|
--10h--11p-10-8--6S--5S--6--|---------------------|----------------|
----------------------------|--6g8~--------8--10--|--11------------|
----------------------------|---------------------|----------------|


   H         Q        Q     H             H         Q          H.            
------------------|-------------------|-------------------|-----------------|
------------------|-------------------|-------------------|-----------------|
------------------|-------------------|-------------------|-----------------|
-------------9----|--10-----L~--------|---L---------L\----|--5g7------------|
--10~-------------|-------------------|-------------------|-----------------|
------------------|-------------------|-------------------|-----------------|


  H           Q       H         Q        H        E  E      H.             
-------------------|-----------------|------------------|-----------------|
-------------------|-----------------|------------------|-----------------|
-------------------|-----------------|------------7--9--|--10~------------|
--8--------8g10----|--7~--------8----|--10--------------|-----------------|
-------------------|-----------------|------------------|-----------------|
-------------------|-----------------|------------------|-----------------|


  Q    Q     Q       H.                 H        Q       H.             
------------------|----------------|------------------|----------------|
------------------|----------------|------------------|----------------|
--9----L\----4----|--5~------------|--5g7--------5----|----------------|
------------------|----------------|------------------|--8~------------|
------------------|----------------|------------------|----------------|
------------------|----------------|------------------|----------------|


  Q      Q    Q       Q      Q     Q        H          Q      
-------------------|--------------------|--------------------|
-------------------|--------------------|--------------------|
-------------------|--------------12----|--10~---------L\----|
--8h----10----8----|--7s----10----------|--------------------|
-------------------|--------------------|--------------------|
-------------------|--------------------|--------------------|


     H         Q        Q      Q        Q        Q     H          
--------------------|------------------------|-------------------|
--------------------|------------------------|-------------------|
--9g10p--------9----|--10s----12----12g14----|--12-----L~--------|
--------------------|------------------------|-------------------|
--------------------|------------------------|-------------------|
--------------------|------------------------|-------------------|


   H.              H.              Q.      E   Q       H        Q     
----------------|---------------|-------------------|----------------|
----------------|---------------|-------------------|----------------|
---L------------|---------------|-------------------|----------------|
----------------|--7------------|--8p------7--------|--7--------8----|
----------------|---------------|-------------10----|----------------|
----------------|---------------|-------------------|----------------|


   Q    Q    Q        H.               Q    Q     Q       H.             
------------------|-----------------|------------------|----------------|
------------------|-----------------|------------------|----------------|
--------7----9----|--10~------------|--9----L\----4----|--5~------------|
--10--------------|-----------------|------------------|----------------|
------------------|-----------------|------------------|----------------|
------------------|-----------------|------------------|----------------|


             |----3---|                                |----3----|   
  Q     Q    Q     S  S    H.               Q     Q    Q      S  S   
------------------------|----------------|--------------------------|
------------------------|----------------|--------------------------|
--5s----7----5h----7p-5-|----------------|--------------------------|
------------------------|--8~------------|--8----10----8h----10p-8S-|
------------------------|----------------|--------------------------|
------------------------|----------------|--------------------------|


  Q     Q    Q       H         E   E     H            Q        Q.      E  Q     
------------------|-------------------|--------------------|-------------------|
------------------|-------------------|--------------------|-------------------|
------------------|-------------------|--------------------|-------------------|
--7---------------|-------------------|--------------------|-------------------|
-------10----7----|--8~--------L~-----|--8--------10g12----|--10s------8--8----|
------------------|----------------8--|--------------------|-------------------|


  Q    H            H        Q          Q     H             H.            
-----------------|----------------|---------------------|----------------|
-----------------|----------------|---------------------|----------------|
-----------------|----------------|---------------------|----------------|
-----------------|----------------|---------------------|----------------|
--8----L~--------|--L--------8----|--8g10-----L~--------|---L------------|
-----------------|----------------|---------------------|----------------|


   \1/                                                                          
                                                |---3---|                       
   H.               H.               H          E   E   E      H        E   E   
----------------|----------------|-------------------------|---------------11--|
----------------|----------------|--11b---------L---Lp--9--|--11--------9------|
----------------|----------------|-------------------------|-------------------|
----------------|----------------|-------------------------|-------------------|
---L------------|---L------------|-------------------------|-------------------|
----------------|----------------|-------------------------|-------------------|


                                                         |---3---|   
   Q      H             Q     Q    E   E      H          E   E   E   
--------------------|---------------------|-------------------------|
--11b-----L~--------|---L\---------9--11--|--11b---------L---Lp--9--|
--------------------|---------------------|-------------------------|
--------------------|---------------------|-------------------------|
--------------------|---------------------|-------------------------|
--------------------|---------------------|-------------------------|


   Q    Q     Q        Q      H             Q        Q     E   E    
-------------11----|--------------------|--------------------------|
--11----9----------|--11b-----L~--------|---Lpbr----13----14--16s--|
-------------------|--------------------|--------------------------|
-------------------|--------------------|--------------------------|
-------------------|--------------------|--------------------------|
-------------------|--------------------|--------------------------|


   H         E    E      H         Q         E    S   S  E   E    E    E   
---------------------|-------------------|--------------------------------|
--18--------16s--14--|-------------------|--13h--14p-13-------------------|
---------------------|--17--------15b----|--------------15--13S--12S--13--|
---------------------|-------------------|--------------------------------|
---------------------|-------------------|--------------------------------|
---------------------|-------------------|--------------------------------|


   H          E   E      H.                H            Q     
---------------------|-----------------|---------------------|
---------------------|-----------------|---------------------|
-----------------12--|--13~------------|--12--------14g16----|
--15~--------15------|-----------------|---------------------|
---------------------|-----------------|---------------------|
---------------------|-----------------|---------------------|


   Q     H             Q     Q     Q        H.                H         Q     
-------------------|--------------------|-----------------|------------------|
-------------------|--------------------|--11b------------|--11~--------9----|
--17-----L~--------|---L-----L\---------|-----------------|------------------|
-------------------|--------------------|-----------------|------------------|
-------------------|--------------------|-----------------|------------------|
-------------------|--------------------|-----------------|------------------|


   H.                Q    E  E  Q       Q     E   E   Q      
-----------------|-------------------|-------13--11---------|
--11b------------|---L----9----------|---------------11b----|
-----------------|-------------------|----------------------|
-----------------|-------------------|----------------------|
-----------------|-------------------|----------------------|
-----------------|-------------------|----------------------|


   E   E   E   E   E    E      Q        H             H          E   E   
---------------------------|----------------------|---------------------|
---L-----------------------|----------------------|-------------14--16--|
------13--12--10-----------|--------12g13~--------|---L~----------------|
------------------13S--11--|--10------------------|---------------------|
---------------------------|----------------------|---------------------|
---------------------------|----------------------|---------------------|


   H         E   E      H          Q           H          E   E   
--------------------|-------------------|------------------------|
--18--------16--14--|-------------------|------------------------|
--------------------|--17~--------15----|--15g17~--------13--12--|
--------------------|-------------------|------------------------|
--------------------|-------------------|------------------------|
--------------------|-------------------|------------------------|


   H          E   E      H          Q        H          Q     
---------------------|-------------------|-------------------|
---------------------|-------------------|-------------------|
-----------------12--|--13~--------13----|--12~--------16----|
--15~--------15------|-------------------|-------------------|
---------------------|-------------------|-------------------|
---------------------|-------------------|-------------------|


   Q     H             Q     Q     Q          H.             
-------------------|--------------------|-------------------|
-------------------|--------------------|--8g10~------------|
--17-----L~--------|---L-----L\---------|-------------------|
-------------------|--------------------|-------------------|
-------------------|--------------------|-------------------|
-------------------|--------------------|-------------------|


   H         Q           H          Q        Q     Q     Q     
---------------------|-------------------|--------10----12----|
--11--------11pbr----|--10~--------11----|--13----------------|
---------------------|-------------------|--------------------|
---------------------|-------------------|--------------------|
---------------------|-------------------|--------------------|
---------------------|-------------------|--------------------|


   H.                H         Q        H.                   H         Q     
--13~------------|--12--------------|-----------------|---------------------|
-----------------|------------12----|--13~------------|--13g15--------13----|
-----------------|------------------|-----------------|---------------------|
-----------------|------------------|-----------------|---------------------|
-----------------|------------------|-----------------|---------------------|
-----------------|------------------|-----------------|---------------------|


   Q     Q        Q        H          E   E      H          E   E   
-----------------------|-------------17--18--|--20~--------17------|
--------15----15g22----|--20~----------------|-----------------20--|
--15-------------------|---------------------|---------------------|
-----------------------|---------------------|---------------------|
-----------------------|---------------------|---------------------|
-----------------------|---------------------|---------------------|


   H          Q        H.               Q     Q     Q         Q     H          
-------------------|----------------|---------------------|-------------------|
--18~--------17----|--18------------|--18----20----20b----|--20-----L~--------|
-------------------|----------------|---------------------|-------------------|
-------------------|----------------|---------------------|-------------------|
-------------------|----------------|---------------------|-------------------|
-------------------|----------------|---------------------|-------------------|


   Q     Q     Q          H.                Q.       E   Q     
--------------------|-------------------|---------------------|
---L-----L\---------|--8g10~------------|--11p------10--------|
--------------------|-------------------|---------------12----|
--------------------|-------------------|---------------------|
--------------------|-------------------|---------------------|
--------------------|-------------------|---------------------|


   H          Q        H          E   E      H         Q     
-------------------|-------------10--12--|--13--------13----|
--10~--------11----|--13~----------------|------------------|
-------------------|---------------------|------------------|
-------------------|---------------------|------------------|
-------------------|---------------------|------------------|
-------------------|---------------------|------------------|


           |--3--|                                             
   Q.      S  S  S  Q       H.                  H        Q     
--12------12-13-12s-7----|--8~------------|--8g10--------8----|
-------------------------|----------------|-------------------|
-------------------------|----------------|-------------------|
-------------------------|----------------|-------------------|
-------------------------|----------------|-------------------|
-------------------------|----------------|-------------------|


      Q     Q        Q        H          E   E      H          E   E   
--------------------------|-------------17--18--|--20~--------17------|
-----------15----15g22----|--20~----------------|-----------------20--|
--13g15-------------------|---------------------|---------------------|
--------------------------|---------------------|---------------------|
--------------------------|---------------------|---------------------|
--------------------------|---------------------|---------------------|


   H          Q        H.               Q     Q      Q        
-------------------|----------------|------------------------|
--18~--------17----|--18------------|---L----20b----20pbr----|
-------------------|----------------|------------------------|
-------------------|----------------|------------------------|
-------------------|----------------|------------------------|
-------------------|----------------|------------------------|


   Q     H             E    E   Q     Q        Q     Q     Q      
-------------------|-----------------------|--13----15----15b----|
--18-----L~--------|---Ls--15--15----17----|---------------------|
-------------------|-----------------------|---------------------|
-------------------|-----------------------|---------------------|
-------------------|-----------------------|---------------------|
-------------------|-----------------------|---------------------|


   H          Q        Q     H             Q     Q     Q        H.             
--15s--------13----|--13-----L~--------|---L-----L\---------|-----------------|
-------------------|-------------------|--------------------|--11b------------|
-------------------|-------------------|--------------------|-----------------|
-------------------|-------------------|--------------------|-----------------|
-------------------|-------------------|--------------------|-----------------|
-------------------|-------------------|--------------------|-----------------|


   H.               Q      Q     Q       H.                  Q     Q     Q     
-----------------|--------------------|----------------|----------------------|
--11~------------|--9h----11----13----|----------------|----------------------|
-----------------|--------------------|--8~------------|--8g10----12----13----|
-----------------|--------------------|----------------|----------------------|
-----------------|--------------------|----------------|----------------------|
-----------------|--------------------|----------------|----------------------|


   H.                  Q      Q     Q        H.                H.             
-------------------|---------------------|-----------------|-----------------|
--11br~------------|--14p----13----------|--16~------------|--11b------------|
-------------------|---------------13----|-----------------|-----------------|
-------------------|---------------------|-----------------|-----------------|
-------------------|---------------------|-----------------|-----------------|
-------------------|---------------------|-----------------|-----------------|


                PH                                                
   H            Q          Q     Q     Q           H.             
-------------<>12pbr----|-------------------|--------------------|
--11~-------------------|--9----11----13----|--13g16~------------|
------------------------|-------------------|--------------------|
------------------------|-------------------|--------------------|
------------------------|-------------------|--------------------|
------------------------|-------------------|--------------------|


      H.               Q     Q      Q           H.             
-------------------|---------------------|--------------------|
--16g18------------|--18----16s----13----|--13g16~------------|
-------------------|---------------------|--------------------|
-------------------|---------------------|--------------------|
-------------------|---------------------|--------------------|
-------------------|---------------------|--------------------|


   tr                                                      
   H.                   H.                H.               
--------------------|-----------------|-------------------|
--14(16)------------|--14b------------|--14pb~------------|
--------------------|-----------------|-------------------|
--------------------|-----------------|-------------------|
--------------------|-----------------|-------------------|
--------------------|-----------------|-------------------|


   H            E   S   S     H.               E   E    E     E   E   E   
--------------------------|-----------------|-----14b--14pb--14----------|
--14pbr---------L---Lp-12-|-----------------|--------------------16--14--|
--------------------------|--11~------------|----------------------------|
--------------------------|-----------------|----------------------------|
--------------------------|-----------------|----------------------------|
--------------------------|-----------------|----------------------------|


   Q        Q     Q        E    E     E   E    E    E   
-----------------------|-------------18--19s--21s--19--|
--14pbr----------------|--19b--19pb--------------------|
-----------16~---------|-------------------------------|
-----------------------|-------------------------------|
-----------------------|-------------------------------|
-----------------------|-------------------------------|


   E   E   E    E   Q        E   E   E   E   Q         E   E   E   E   Q     
--18---------------------|-------------------------|--------------16--18----|
------19-----------------|--------------17--19~----|--16--17--19------------|
----------18s--16--15----|--16--18--20-------------|------------------------|
-------------------------|-------------------------|------------------------|
-------------------------|-------------------------|------------------------|
-------------------------|-------------------------|------------------------|


   H           Q        H.                H.                 H          Q       
--18br--------16----|-----------------|------------------|---------------------|
--------------------|--19~------------|--19br------------|--19b--------19pb----|
--------------------|-----------------|------------------|---------------------|
--------------------|-----------------|------------------|---------------------|
--------------------|-----------------|------------------|---------------------|
--------------------|-----------------|------------------|---------------------|


   H.                Q     Q     Q        H.                Q     Q     Q     
-----------------|--------16----18----|--18~------------|--18----19----21----|
--20~------------|--20----------------|-----------------|--------------------|
-----------------|--------------------|-----------------|--------------------|
-----------------|--------------------|-----------------|--------------------|
-----------------|--------------------|-----------------|--------------------|
-----------------|--------------------|-----------------|--------------------|


   Q      H             H.               H.              H.            
--21b-----L~--------|---L------------|---L------------|---------------|
--------------------|----------------|----------------|---------------|
--------------------|----------------|----------------|---------------|
--------------------|----------------|----------------|---------------|
--------------------|----------------|----------------|---------------|
--------------------|----------------|----------------|---------------|


              |---3---|                                             
   H          E   E   E      H         E   E      Q      H          
-------------------------|----------------11--|--------------------|
--11b---------L---Lp--9--|--11~--------9------|--11b-----L~--------|
-------------------------|--------------------|--------------------|
-------------------------|--------------------|--------------------|
-------------------------|--------------------|--------------------|
-------------------------|--------------------|--------------------|


                                    |---3---|                        
   Q     Q    E   E      H          E   E   E      Q    Q     E  E   
---------------------|-------------------------|-------------11-----|
---L\---------9--11--|--11b---------L---Lp--9--|--11----9--------9--|
---------------------|-------------------------|--------------------|
---------------------|-------------------------|--------------------|
---------------------|-------------------------|--------------------|
---------------------|-------------------------|--------------------|


   Q      H             Q        Q     Q        H          E   E   
--------------------|-----------------------|---------------------|
--11b-----L~--------|---Lpbr----14----16----|--16b--------16--14--|
--------------------|-----------------------|---------------------|
--------------------|-----------------------|---------------------|
--------------------|-----------------------|---------------------|
--------------------|-----------------------|---------------------|


   H         Q         E    S   S  E   E    E    E      H          E   E   
-------------------|--------------------------------|---------------------|
-------------------|--13h--14p-13-------------------|---------------------|
--17--------15b----|--------------15--13S--12S--13--|-----------------12--|
-------------------|--------------------------------|--15~--------15------|
-------------------|--------------------------------|---------------------|
-------------------|--------------------------------|---------------------|


   H          Q        H         Q        H.               H.             
-------------------|------------------|----------------|-----------------|
-------------------|------------------|----------------|-----------------|
--13~--------13----|--12--------------|----------------|-----------------|
-------------------|------------12----|--15------------|--14~------------|
-------------------|------------------|----------------|-----------------|
-------------------|------------------|----------------|-----------------|


   H.                Q    Q     Q        Q      H          
-----------------|-------------11----|--------------------|
--11b------------|--11----9----------|--11b-----L~--------|
-----------------|-------------------|--------------------|
-----------------|-------------------|--------------------|
-----------------|-------------------|--------------------|
-----------------|-------------------|--------------------|


                                    |---3---|                        
   Q     Q    E   E      H          E   E   E      Q    Q     E  E   
---------------------|-------------------------|-------------11-----|
---L\---------9--11--|--11b---------L---Lp--9--|--11----9--------9--|
---------------------|-------------------------|--------------------|
---------------------|-------------------------|--------------------|
---------------------|-------------------------|--------------------|
---------------------|-------------------------|--------------------|


   Q      H             Q     Q     Q        H          E   E   
--------------------|--------------------|---------------------|
--11b-----L~--------|---L----14----16----|--16b--------16--14--|
--------------------|--------------------|---------------------|
--------------------|--------------------|---------------------|
--------------------|--------------------|---------------------|
--------------------|--------------------|---------------------|


   H         Q           H          E   E      H          E   E   
------------------|------------------------|---------------------|
------------------|------------------------|---------------------|
--17--------15----|--15g17~--------13--12--|-----------------12--|
------------------|------------------------|--15~--------15------|
------------------|------------------------|---------------------|
------------------|------------------------|---------------------|


   H.                Q     Q      Q         H.             
-----------------|----------------------|-----------------|
-----------------|----------------------|-----------------|
--13~------------|--13----15b----15b----|--15~------------|
-----------------|----------------------|-----------------|
-----------------|----------------------|-----------------|
-----------------|----------------------|-----------------|


   Q     E    S   S   Q        H.                Q     Q     Q     
---------------------------|-----------------|--------------------|
---------------------------|-----------------|--------------------|
---L----13h--15p-13s-12----|--13~------------|---L-----L\---------|
---------------------------|-----------------|--------------------|
---------------------------|-----------------|--------------------|
---------------------------|-----------------|--------------------|


   H.                 H         E      E      H.                H.            
------------------|-----------------------|-----------------|----------------|
------------------|-----------------------|-----------------|----------------|
--13b~------------|---L--------13pbr--11--|--13~------------|---L------------|
------------------|-----------------------|-----------------|----------------|
------------------|-----------------------|-----------------|----------------|
------------------|-----------------------|-----------------|----------------|


             \1/                                                            
   H         Q        H.               H.                H          E   E   
------------------|----------------|-----------------|---------------------|
------------------|----------------|-----------------|---------------------|
------------------|----------------|--13~------------|---L~--------11--13--|
--13---------L----|---L------------|-----------------|---------------------|
------------------|----------------|-----------------|---------------------|
------------------|----------------|-----------------|---------------------|


   H.                 H         E      E      H.             
------------------|-----------------------|-----------------|
------------------|-----------------------|-----------------|
--13b~------------|---L--------13pbr--11--|--13~------------|
------------------|-----------------------|-----------------|
------------------|-----------------------|-----------------|
------------------|-----------------------|-----------------|


   Q     Q     Q        Q        H             Q     Q     Q     
--------------------|----------------------|--------------------|
--------------------|----------------------|--------------------|
---L----------------|--------11g13~--------|---L-----L\---------|
--------13----11----|--10------------------|--------------------|
--------------------|----------------------|--------------------|
--------------------|----------------------|--------------------|


   H.                 H.               H.                 H.               
------------------|----------------|------------------|-------------------|
------------------|----------------|------------------|-------------------|
--11b~------------|---L------------|--13b~------------|---Lpbr------------|
------------------|----------------|------------------|-------------------|
------------------|----------------|------------------|-------------------|
------------------|----------------|------------------|-------------------|


   H.                Q     Q     Q        Q     Q     Q     
-----------------|--------------------|--------------------|
-----------------|--------13----14----|--13----------------|
--13~------------|---L----------------|--------13----------|
-----------------|--------------------|--------------13----|
-----------------|--------------------|--------------------|
-----------------|--------------------|--------------------|


   Q      Q.      E         H.                Q      Q     Q     
---------------------|--------------------|---------------------|
---------------------|--------------------|---------------------|
--13~-----L------11--|--11g13~------------|---L~----11----13----|
---------------------|--------------------|---------------------|
---------------------|--------------------|---------------------|
---------------------|--------------------|---------------------|


   H.                 H         E      E      E   E   H          
------------------|-----------------------|---------------------|
------------------|-----------------------|---------------------|
--13b~------------|---L--------13pbr--11--|--13-----------------|
------------------|-----------------------|------13--13~--------|
------------------|-----------------------|---------------------|
------------------|-----------------------|---------------------|


   Q        E   E   E   E      E    E   E   E  E  E     E  E  E    E  Q      
---------------------------|-------------------------|----------------------|
--------14g16--14--13------|-------------------------|----------------------|
-----------------------13--|-------------------------|----------------------|
---L-----------------------|--13s--10----------------|----------------------|
---------------------------|-----------11s--6--------|----------------------|
---------------------------|-------------------9--8--|--9--8--9s--11--9/----|


  Q     H              H         Q        E   Q.       E     S  S  
-------14b~--------|---L---------L\----|--------------------------|
-------------------|-------------------|--------------------------|
-------------------|-------------------|-----11b------11pb--11----|
-------------------|-------------------|-----------------------13-|
-------------------|-------------------|--------------------------|
-------------------|-------------------|--------------------------|


   E   E  E   E   E  E      E   E  E   Q     E     E  E  Q     E  E   
------------------------|-----------------------|--------------------|
------------------------|-----------------------|--------------------|
------------------------|-----------------------|--------------------|
--12--11--9--10------9--|--10-------------------|--------------------|
-----------------11-----|------11--9s--4~----3--|--4--3--3~----------|
------------------------|-----------------------|--------------4--2--|


    H.                 H.               E   E  E   E  E   E   
------------------|------------------|-----------------------|
------------------|------------------|-----------------------|
------------------|------------------|-----------------------|
------------------|--4g6~------------|--4h--6--6p--4--6p--4--|
------------------|------------------|-----------------------|
--2g4~------------|------------------|-----------------------|


            PM PM      PH                            W         
  H         E  E       Q     E   E  E   E     E   E  H         
------------------|------------------------|------------------|
------------------|------------------------|------------------|
------------------|--<>6b----4h--5---------|---------4--------|
--6~--------4--6--|-----------------6p--4--|--4h--6-----------|
------------------|------------------------|------------------|
------------------|------------------------|------------------|


  Q       E   E   E   E     H        Q         E    E     E   E   E   E   
-------------------------|-----------------|-----------------------------|
-------9g12--12--12S--9--|--9--------L\----|--14b--14pb--14--13----------|
--L----8g11--11--11S--8--|--8--------L\----|---------------------13------|
-------------------------|-----------------|-------------------------13--|
-------------------------|-----------------|-----------------------------|
-------------------------|-----------------|-----------------------------|


                             PM  PM  PM     PM PM                           
   E   E   E   E   E  E      E   E   E  E   E  E      E   E   E  E   E  E   
-------------------------|------------------------|------------------------|
-------------------------|------------------------|------------------------|
-------------------------|------------------------|------------------------|
--11--10--11--10---------|--------------9---------|--11b--9-------------9--|
------------------11--9--|--11--11--11-----11--9--|----------11--9--11-----|
-------------------------|------------------------|------------------------|


      E   E   E   E   E   E      E    E   E   E   Q         H.              
-----------------------------|---------------14--14b----|--14b~------------|
---------------------14--16--|--14b--16--17-------------|------------------|
---------13--15--16----------|--------------------------|------------------|
--11g13----------------------|--------------------------|------------------|
-----------------------------|--------------------------|------------------|
-----------------------------|--------------------------|------------------|


  whammy dives                                                          
  H.               E    E     E     E    E     E        H.              
---------------|------------------------------------|------------------|
---------------|------------------------------------|------------------|
---------------|--11b--11pb--11pb--11b--11pb--11pb--|--11b~------------|
---------------|------------------------------------|------------------|
---------------|------------------------------------|------------------|
--x------------|------------------------------------|------------------|


      E   E   E      E   E   E         E   E   E   E   E   E   
--------------------------------|-----------------------------|
--15g17--17--17--15g17--17--17--|--15g17--16------------------|
--14g16--16--16--14g16--16--16--|--14g16------18--16--15------|
--------------------------------|-------------------------18--|
--------------------------------|-----------------------------|
--------------------------------|-----------------------------|


                                                               W             
      E   E   E      E   E   E      E   E   E   E   E   E      H.            
--------------------------------|--------------------------|----------------|
--17g19--19--19--17g19--19--19--|--19------21------19------|--21------------|
--16g18--18--18--16g18--18--18--|------18------18------18--|--20------------|
--------------------------------|--------------------------|----------------|
--------------------------------|--------------------------|----------------|
--------------------------------|--------------------------|----------------|


   Q     Q      Q         Q.       Q.         Q.       Q.       
----------------------|-----------20------|--------------------|
---L----19b----19b----|--19b--------------|--19b------19b------|
---L------------------|-------------------|--------------------|
----------------------|-------------------|--------------------|
----------------------|-------------------|--------------------|
----------------------|-------------------|--------------------|


   E    E     E     E     Q           H           Q        
----------------------------------|-----------------------|
--19b--19pb--19pb--19pb--19pbr----|--19b~--------19pbr----|
----------------------------------|-----------------------|
----------------------------------|-----------------------|
----------------------------------|-----------------------|
----------------------------------|-----------------------|


   E    E     E     E     Q           Q        Q        Q        
----------------------------------|-----------------------------|
--19b--19pb--19pb--19pb--19pbr----|--19pbr----19pbr----19pbr----|
----------------------------------|-----------------------------|
----------------------------------|-----------------------------|
----------------------------------|-----------------------------|
----------------------------------|-----------------------------|


                                         whammy dives                  
   H.                 H.                 H.              H.            
------------------|-------------------|---------------|---------------|
--19b~------------|--19pb~------------|---------------|---------------|
------------------|-------------------|---------------|---------------|
------------------|-------------------|---------------|---------------|
------------------|-------------------|---------------|---------------|
------------------|-------------------|--x------------|--x------------|


   H.                 Q     E    S   S   E   E      E   E   E   E   E   E   
--19br------------|--19----18h--19p-18p-16--18--|--14----------------------|
------------------|-----------------------------|------14------------------|
------------------|-----------------------------|----------15--------------|
------------------|-----------------------------|--------------16------16--|
------------------|-----------------------------|------------------16------|
------------------|-----------------------------|--------------------------|


                       |---3---|                      
   E   S  S  S  S  E   E   E   E      H.              
----------------------16--18--16--|--18b~------------|
------------16-17-19--------------|------------------|
--15--16-18-----------------------|------------------|
----------------------------------|------------------|
----------------------------------|------------------|
----------------------------------|------------------|


                                                            whammy dive  
   E   S  S  E   E   E   E       H.               H         Q            
--18--19-18-----18--19--21b--|---L------------|---L~--------------------|
------------21---------------|----------------|-------------------------|
-----------------------------|----------------|-------------------------|
-----------------------------|----------------|-------------------------|
-----------------------------|----------------|-------------------------|
-----------------------------|----------------|-------------x-----------|


   H.               Q    Q     Q         H.             
-----------------|------------------|-----------------||
-----------------|------------------|-----------------||
--/9~------------|--L----L\---------|--/11------------||
--/9-------------|--L----L\---------|--/11------------||
-----------------|------------------|-----------------||
-----------------|------------------|-----------------||


                       Requiem for the Nameless Victims                         


                       From "Dracula Battle" by Konami
Rhythm Guitar



     Q    Q    Q       Q    Q    Q       Q    Q    Q       Q    Q    Q     
E||-----------------|-----------------|-----------------|-----------------|
B||-----------------|--8--------------|-----------------|--6--------------|
G||------------8----|-------8---------|------------6----|-------6---------|
D||-------8---------|------------8----|-------6---------|------------6----|
A||--6--------------|-----------------|--6--------------|-----------------|
E||-----------------|-----------------|-----------------|-----------------|


  Q    Q    Q       Q    Q    Q       Q    Q    Q       Q    Q    Q     
-----------------|-----------------|-----------------|-----------------|
-----------------|--8--------------|-----------------|--6--------------|
------------8----|-------8---------|------------6----|-------6---------|
-------8---------|------------8----|-------6---------|------------6----|
--6--------------|-----------------|--6--------------|-----------------|
-----------------|-----------------|-----------------|-----------------|


  Q    Q    Q       Q    Q    Q       Q    Q    Q       Q    Q    Q     
-----------------|-----------------|-----------------|-----------------|
-----------------|--8--------------|-----------------|--6--------------|
------------8----|-------8---------|------------6----|-------6---------|
-------8---------|------------8----|-------6---------|------------6----|
--6--------------|-----------------|--6--------------|-----------------|
-----------------|-----------------|-----------------|-----------------|


  Q    Q    Q       Q    Q    Q       H.              H.            
-----------------|-----------------|---------------|---------------|
-----------------|--8--------------|---------------|---------------|
------------8----|-------8---------|---------------|---------------|
-------8---------|------------8----|--8------------|--L------------|
--6--------------|-----------------|---------------|---------------|
-----------------|-----------------|---------------|---------------|


  H.              H.              H.              H.            
---------------|---------------|---------------|---------------|
---------------|---------------|---------------|---------------|
---------------|---------------|---------------|---------------|
--L------------|--L------------|--L------------|--L------------|
---------------|---------------|---------------|---------------|
---------------|---------------|---------------|---------------|


                                                        |---3---|             
  Q    Q    Q       Q    Q    Q       Q    Q    Q       E   E   E  Q    Q     
-----------------|-----------------|-----------------|-----------------------|
-----------------|-----------------|-----------------|-----------------------|
-----------------|------------8----|-----------------|--5h--6p--5------------|
------------8----|-------8---------|------------6----|-------------6---------|
-------8---------|--6--------------|-------6---------|------------------5----|
--6--------------|-----------------|--4--------------|-----------------------|


  Q    Q    Q       Q    Q    Q       Q    Q    Q       Q    Q    Q     
-----------------|-----------------|-----------------|-----------------|
-----------------|-----------------|-----------------|-----------------|
------------6----|------------8----|-----------------|--5--------------|
-------6---------|-------8---------|------------6----|-------6---------|
--4--------------|--6--------------|-------6---------|------------6----|
-----------------|-----------------|--4--------------|-----------------|


  Q    Q    Q       Q    Q    Q       Q    Q    Q         Q    Q    Q     
-----------------|-----------------|-----------------|-------------------|
-----------------|-----------------|-----------------|-------------------|
------------6----|--5--------------|-----------------|--------------5----|
-------6---------|-------5---------|------------3----|---------6---------|
--4--------------|------------3----|-------3---------|--4g6--------------|
-----------------|-----------------|--1--------------|-------------------|


  Q    Q    Q       Q    Q    Q       Q    Q    Q     
-----------------|-----------------|-----------------|
-----------------|-----------------|-----------------|
------------5----|-----------------|------------5----|
-------6---------|------------5----|-------5---------|
--5--------------|-------5---------|--3--------------|
-----------------|--3--------------|-----------------|


                                                  
  Q             Q    Q       Q    Q    Q       Q    Q    Q     
--------------------------|-----------------|-----------------|
--5-----------------------|-----------------|-----------------|
----------------5---------|-----------------|------------8----|
---------------------5----|------------8----|-------8---------|
--------------------------|-------8---------|--6--------------|
--------------------------|--6--------------|-----------------|


                    |---3---|                                                 
  Q    Q    Q       E   E   E  Q    Q       Q    Q    Q       Q    Q    Q     
-----------------|-----------------------|-----------------|-----------------|
-----------------|-----------------------|-----------------|-----------------|
-----------------|--5h--6p--5------------|------------6----|------------8----|
------------6----|-------------6---------|-------6---------|-------8---------|
-------6---------|------------------5----|--4--------------|--6--------------|
--4--------------|-----------------------|-----------------|-----------------|


  Q    Q    Q       Q    Q    Q       Q    Q    Q       Q    Q    Q     
-----------------|-----------------|-----------------|-----------------|
-----------------|-----------------|-----------------|-----------------|
-----------------|--5--------------|------------6----|------------5----|
------------6----|-------6---------|-------6---------|-------5---------|
-------6---------|------------6----|--4--------------|--3--------------|
--4--------------|-----------------|-----------------|-----------------|


  Q    Q    Q       Q    Q    Q       Q    Q    Q       Q    Q    Q     
-----------------|-----------------|-----------------|-----------------|
-----------------|-----------------|-----------------|-----------------|
-----------------|------------5----|------------5----|-----------------|
------------3----|-------6---------|-------6---------|------------5----|
-------3---------|--6--------------|--5--------------|-------5---------|
--1--------------|-----------------|-----------------|--3--------------|


  Q    Q    Q       Q    Q    Q       Q    Q    Q       Q    Q    Q     
-----------------|-----------------|-----------------|-----------------|
-----------------|-----------------|-----------------|-----------------|
------------5----|-----------------|-----------------|--3--------------|
-------5---------|--5--------------|------------3----|-------3---------|
--3--------------|-------3---------|-------3---------|------------3----|
-----------------|------------3----|--1--------------|-----------------|


  Q    Q    Q         Q    Q    Q       Q    Q    Q       Q    Q    Q     
-----------------|-------------------|-----------------|-----------------|
-----------------|-------------------|-----------------|-----------------|
-----------------|--------------5----|------------7----|------------9----|
------------3----|---------5---------|-------7---------|-------9---------|
-------3---------|--3g7--------------|--5--------------|--7--------------|
--1--------------|-------------------|-----------------|-----------------|


  Q    Q    Q       Q    Q    Q       Q    Q    Q       Q    Q    Q     
-----------------|-----------------|-----------------|-----------------|
-----------------|-----------------|-----------------|-----------------|
-----------------|------------2----|-----------------|------------8----|
-------2---------|-------0---------|------------5----|-------8---------|
--0--------------|-----------------|-------5---------|--6--------------|
------------3----|--2--------------|--3--------------|-----------------|


  Q    Q    Q       Q    Q    Q       Q    Q    Q       Q    Q    Q     
-----------------|-----------------|-----------------|-----------------|
-----------------|-----------------|-----------------|-----------------|
------------2----|------------7----|-----------------|--3--------------|
-------2---------|-------7---------|------------5----|-------5---------|
--0--------------|--5--------------|-------5---------|------------5----|
-----------------|-----------------|--3--------------|-----------------|


  Q    Q    Q       Q    Q    Q       Q    Q    Q       Q    Q    Q     
-----------------|-----------------|-----------------|-----------------|
-----------------|--5--------------|-----------------|-----------------|
------------5----|-------5---------|-----------------|--3--------------|
-------5---------|------------5----|------------3----|-------3---------|
--3--------------|-----------------|-------3---------|------------3----|
-----------------|-----------------|--1--------------|-----------------|


  Q    Q    Q         Q    Q    Q       Q    Q    Q       Q    Q    Q     
-----------------|-------------------|-----------------|-----------------|
-----------------|-------------------|-----------------|-----------------|
-----------------|--------------5----|------------7----|------------9----|
------------3----|---------5---------|-------7---------|-------9---------|
-------3---------|--3g7--------------|--5--------------|--7--------------|
--1--------------|-------------------|-----------------|-----------------|


  Q    Q    Q       Q    Q    Q       Q    Q    Q       Q    Q    Q     
-----------------|-----------------|-----------------|-----------------|
-----------------|-----------------|-----------------|-----------------|
-----------------|------------2----|-----------------|------------8----|
-------2---------|-------0---------|------------5----|-------8---------|
--0--------------|-----------------|-------5---------|--6--------------|
------------3----|--2--------------|--3--------------|-----------------|


  Q    Q    Q       Q    Q    Q       Q    Q    Q       Q    Q    Q     
-----------------|-----------------|-----------------|-----------------|
-----------------|-----------------|-----------------|-----------------|
------------2----|------------7----|-----------------|------------5----|
-------2---------|-------7---------|------------5----|-------5---------|
--0--------------|--5--------------|-------5---------|--3--------------|
-----------------|-----------------|--3--------------|-----------------|


  Q      Q    Q       Q    Q    Q       Q    Q    Q       Q    Q    Q     
-------------------|-----------------|-----------------|-----------------|
-------------------|-----------------|-----------------|--5--------------|
-------------------|--2--------------|------------5----|-------5---------|
--------------3----|-------3---------|-------5---------|------------5----|
-------2g3---------|------------3----|--3--------------|-----------------|
--1----------------|-----------------|-----------------|-----------------|


  Q    Q    Q       Q    Q    Q       Q    Q    Q       Q    Q    Q     
-----------------|-----------------|-----------------|-----------------|
-----------------|--5--------------|-----------------|-----------------|
------------5----|-------5---------|-----------------|------------8----|
-------5---------|------------5----|------------8----|-------8---------|
--3--------------|-----------------|-------8---------|--6--------------|
-----------------|-----------------|--6--------------|-----------------|


                    |---3---|                                                 
  Q    Q    Q       E   E   E  Q    Q       Q    Q    Q       Q    Q    Q     
-----------------|-----------------------|-----------------|-----------------|
-----------------|-----------------------|-----------------|-----------------|
-----------------|--5h--6p--5------------|------------6----|------------8----|
------------6----|-------------6---------|-------6---------|-------8---------|
-------6---------|------------------6----|--4--------------|--6--------------|
--4--------------|-----------------------|-----------------|-----------------|


                    |---3---|                                                 
  Q    Q    Q       E   E   E  Q    Q       Q    Q    Q       Q    Q    Q     
-----------------|-----------------------|-----------------|-----------------|
-----------------|-----------------------|-----------------|-----------------|
-----------------|--5h--6p--5------------|------------6----|------------5----|
------------6----|-------------6---------|-------6---------|-------5---------|
-------6---------|------------------6----|--4--------------|--3--------------|
--4--------------|-----------------------|-----------------|-----------------|


  Q    Q    Q       Q    Q    Q       Q    Q    Q       Q    Q    Q     
-----------------|-----------------|-----------------|-----------------|
-----------------|------------1----|------------1----|-----------------|
-----------------|-------1---------|-------1---------|-----------------|
------------3----|--1--------------|--0--------------|------------5----|
-------3---------|-----------------|-----------------|-------5---------|
--1--------------|-----------------|-----------------|--3--------------|


  Q    Q    Q       Q    Q    Q       Q    Q    Q       Q    Q    Q     
-----------------|-----------------|-----------------|-----------------|
-----------------|--5--------------|-----------------|-----------------|
------------5----|-------5---------|-----------------|------------8----|
-------5---------|------------5----|------------8----|-------8---------|
--3--------------|-----------------|-------8---------|--6--------------|
-----------------|-----------------|--6--------------|-----------------|


                    |---3---|                                                 
  Q    Q    Q       E   E   E  Q    Q       Q    Q    Q       Q    Q    Q     
-----------------|-----------------------|-----------------|-----------------|
-----------------|-----------------------|-----------------|-----------------|
-----------------|--5h--6p--5------------|------------6----|------------8----|
------------6----|-------------6---------|-------6---------|-------8---------|
-------6---------|------------------6----|--4--------------|--6--------------|
--4--------------|-----------------------|-----------------|-----------------|


                    |---3---|                                                 
  Q    Q    Q       E   E   E  Q    Q       Q    Q    Q       Q    Q    Q     
-----------------|-----------------------|-----------------|-----------------|
-----------------|-----------------------|-----------------|-----------------|
-----------------|--5h--6p--5------------|------------6----|------------5----|
------------6----|-------------6---------|-------6---------|-------5---------|
-------6---------|------------------6----|--4--------------|--3--------------|
--4--------------|-----------------------|-----------------|-----------------|


  Q    Q    Q         Q    Q    Q       Q    Q    Q       Q    Q    Q     
-----------------|-------------------|-----------------|-----------------|
-----------------|--------------1----|------------1----|-----------------|
-----------------|---------1---------|-------1---------|-----------------|
------------3----|--0g1--------------|--0--------------|------------5----|
-------3---------|-------------------|-----------------|-------5---------|
--1--------------|-------------------|-----------------|--3--------------|


  Q    Q    Q       Q    Q    Q       Q    Q    Q       Q    Q    Q     
-----------------|-----------------|-----------------|-----------------|
-----------------|--5--------------|-----------------|-----------------|
------------5----|-------5---------|-----------------|--3--------------|
-------5---------|------------5----|------------3----|-------3---------|
--3--------------|-----------------|-------3---------|------------3----|
-----------------|-----------------|--1--------------|-----------------|


  Q    Q    Q         Q    Q    Q       Q    Q    Q       Q    Q    Q     
-----------------|-------------------|-----------------|-----------------|
-----------------|-------------------|-----------------|-----------------|
-----------------|--------------5----|------------7----|------------9----|
------------3----|---------5---------|-------7---------|-------9---------|
-------3---------|--3g7--------------|--5--------------|--7--------------|
--1--------------|-------------------|-----------------|-----------------|


  Q    Q    Q       Q    Q    Q       Q    Q    Q       Q    Q    Q     
-----------------|-----------------|-----------------|-----------------|
-----------------|-----------------|-----------------|-----------------|
-----------------|------------2----|-----------------|------------8----|
-------2---------|-------0---------|------------5----|-------8---------|
--0--------------|-----------------|-------5---------|--6--------------|
------------3----|--2--------------|--3--------------|-----------------|


  Q    Q    Q       Q    Q    Q       Q    Q    Q       Q    Q    Q     
-----------------|-----------------|-----------------|-----------------|
-----------------|-----------------|-----------------|-----------------|
------------2----|------------7----|-----------------|-----------------|
-------2---------|-------7---------|------------5----|--L--------------|
--0--------------|--5--------------|-------5---------|-------5---------|
-----------------|-----------------|--3--------------|------------3----|


  Q    Q    Q       Q    Q    Q       Q    Q    Q       Q    Q    Q     
-----------------|-----------------|-----------------|-----------------|
-----------------|--5--------------|-----------------|-----------------|
------------5----|-------5---------|-----------------|--3--------------|
-------5---------|------------5----|------------3----|-------3---------|
--3--------------|-----------------|-------3---------|------------3----|
-----------------|-----------------|--1--------------|-----------------|


  Q    Q    Q         Q    Q    Q       Q    Q    Q       Q    Q    Q     
-----------------|-------------------|-----------------|-----------------|
-----------------|-------------------|-----------------|-----------------|
-----------------|--------------5----|------------7----|------------9----|
------------3----|---------5---------|-------7---------|-------9---------|
-------3---------|--3g7--------------|--5--------------|--7--------------|
--1--------------|-------------------|-----------------|-----------------|


  Q    Q    Q       Q    Q    Q       Q    Q    Q       Q    Q    Q     
-----------------|-----------------|-----------------|-----------------|
-----------------|-----------------|-----------------|-----------------|
-----------------|------------2----|-----------------|------------8----|
-------2---------|-------0---------|------------5----|-------8---------|
--0--------------|-----------------|-------5---------|--6--------------|
------------3----|--2--------------|--3--------------|-----------------|


  Q    Q    Q       Q    Q    Q       Q    Q    Q       Q    Q    Q     
-----------------|-----------------|-----------------|-----------------|
-----------------|-----------------|-----------------|-----------------|
------------2----|------------7----|-----------------|-----------------|
-------2---------|-------7---------|------------5----|--L--------------|
--0--------------|--5--------------|-------5---------|-----------------|
-----------------|-----------------|--3--------------|-------3----1----|


                    |---3---|                                                  
  Q    Q    Q       E   E   E  Q    Q        Q    Q    Q       Q    Q    Q     
-----------------|------------------------|-----------------|-----------------|
-----------------|--8h--9p--8-------------|-----------------|-----------------|
------------8----|-------------8----------|-----------------|------------5----|
-------8---------|------------------8\----|-----------------|-------5---------|
--6--------------|------------------------|-----------------|--3--------------|
-----------------|------------------------|--3----5----6----|-----------------|


  Q    Q    Q       Q    Q    Q       Q    Q    Q       Q    Q    Q     
-----------------|-----------------|-----------------|-----------------|
-----------------|-----------------|-----------------|-----------------|
-----------------|--2--------------|-----------------|-----------------|
------------3----|-------3---------|------------6----|-----------------|
-------3---------|------------3----|-------6---------|-------6---------|
--1--------------|-----------------|--4--------------|--3---------3----|


  Q    Q    Q       Q    Q    Q       Q    Q    Q       Q    Q    Q     
-----------------|-----------------|-----------------|-----------------|
-----------------|-----------------|-----------------|-----------------|
-----------------|------------5----|------------6----|------------5----|
------------3----|-------5---------|-------6---------|-------6---------|
-------3---------|--3--------------|--4--------------|--3--------------|
--1--------------|-----------------|-----------------|-----------------|


  Q    Q    Q       Q    Q    Q       Q    Q    Q       Q    Q    Q     
-----------------|-----------------|-----------------|-----------------|
-----------------|-----------------|-----------------|-----------------|
-----------------|-------3---------|-----------------|-----------------|
-----------------|--1---------1----|-----------------|-----------------|
--1----3----4----|-----------------|-------6---------|-------6---------|
-----------------|-----------------|--4---------4----|--3---------3----|


  Q    Q    Q       Q    Q    Q       Q    Q    Q       Q    Q    Q     
-----------------|-----------------|-----------------|-----------------|
-----------------|-----------------|-----------------|-----------------|
-----------------|-----------------|-----------------|-----------------|
------------3----|-------5---------|-------6---------|-------6---------|
-------3---------|--3---------3----|--4---------4----|--4---------4----|
--1--------------|-----------------|-----------------|-----------------|


  Q    Q    Q       Q    Q    Q       Q    Q    Q       Q    Q    Q     
-----------------|-----------------|-----------------|-----------------|
-----------------|-----------------|-----------------|-----------------|
-----------------|-----------------|-----------------|-----------------|
-------8---------|-------6---------|-------4---------|-------4---------|
--6---------6----|--4---------4----|--2---------2----|--1---------1----|
-----------------|-----------------|-----------------|-----------------|


  Q    Q    Q       Q    Q    Q       Q    Q    Q       Q    Q    Q     
-----------------|-----------------|-----------------|-----------------|
-----------------|-----------------|-----------------|-----------------|
-----------------|-------3---------|-------4---------|-------4---------|
-----------------|--1---------1----|--2---------2----|--1---------1----|
-------6---------|-----------------|-----------------|-----------------|
--4---------4----|-----------------|-----------------|-----------------|


  Q    Q    Q         Q    Q    Q       Q    Q    Q       Q    Q    Q     
-----------------|-------------------|-----------------|-----------------|
-----------------|-------------------|-----------------|-----------------|
-----------------|---------6---------|-----------------|-----------------|
-------1----2----|--2g4---------4----|-------4---------|-------4---------|
--4--------------|-------------------|--2---------2----|--1---------1----|
-----------------|-------------------|-----------------|-----------------|


  Q    Q    Q       Q    Q    Q       Q    Q    Q       Q    Q    Q     
-----------------|-----------------|-----------------|-----------------|
-----------------|-----------------|-----------------|-----------------|
-----------------|-------3---------|-----------------|-----------------|
-----------------|--1---------1----|-------6---------|-------6---------|
-------6---------|-----------------|--4---------4----|--4---------4----|
--4---------4----|-----------------|-----------------|-----------------|


  Q    Q    Q       Q    Q    Q       Q    Q    Q       Q    Q    Q     
-----------------|-----------------|-----------------|-----------------|
-----------------|-----------------|-----------------|-----------------|
-------3---------|-------3---------|-------3---------|-------3---------|
--1---------1----|--1---------1----|--1---------1----|--1---------1----|
-----------------|-----------------|-----------------|-----------------|
-----------------|-----------------|-----------------|-----------------|


  H.              H.              H.              H.            
---------------|---------------|---------------|---------------|
---------------|---------------|---------------|---------------|
---------------|---------------|---------------|---------------|
--1------------|--L------------|--L------------|--L------------|
---------------|---------------|---------------|---------------|
---------------|---------------|---------------|---------------|


                                                        |---3---|             
  Q    Q    Q       Q    Q    Q       Q    Q    Q       E   E   E  Q    Q     
-----------------|-----------------|-----------------|-----------------------|
-----------------|-----------------|-----------------|-----------------------|
-----------------|------------8----|-----------------|--5h--6p--5------------|
------------8----|-------8---------|------------6----|-------------6---------|
-------8---------|--6--------------|-------6---------|------------------6----|
--6--------------|-----------------|--4--------------|-----------------------|


  Q    Q    Q       Q    Q    Q       Q    Q    Q       Q    Q    Q     
-----------------|-----------------|-----------------|-----------------|
-----------------|-----------------|-----------------|-----------------|
------------6----|------------8----|-----------------|-----------------|
-------6---------|-------8---------|------------6----|--L--------------|
--4--------------|--6--------------|-------6---------|-------6---------|
-----------------|-----------------|--4--------------|------------4----|


  Q    Q    Q       Q    Q    Q       Q    Q    Q       Q    Q    Q     
-----------------|-----------------|-----------------|-----------------|
-----------------|-----------------|-----------------|------------1----|
------------6----|------------5----|-----------------|-------1---------|
-------6---------|-------5---------|------------3----|--1--------------|
--4--------------|--3--------------|-------3---------|-----------------|
-----------------|-----------------|--1--------------|-----------------|


  Q    Q    Q       Q    Q    Q       Q    Q    Q       Q    Q    Q     
-----------------|-----------------|-----------------|-----------------|
------------1----|-----------------|-----------------|--5--------------|
-------1---------|-----------------|------------5----|-------5---------|
--0--------------|------------5----|-------5---------|------------5----|
-----------------|-------5---------|--3--------------|-----------------|
-----------------|--3--------------|-----------------|-----------------|


                                                        |---3---|             
  Q    Q    Q       Q    Q    Q       Q    Q    Q       E   E   E  Q    Q     
-----------------|-----------------|-----------------|-----------------------|
-----------------|-----------------|-----------------|-----------------------|
------------3----|------------8----|-----------------|--5h--6p--5------------|
-------3---------|-------8---------|------------6----|-------------6---------|
--1--------------|--6--------------|-------6---------|------------------6----|
-----------------|-----------------|--4--------------|-----------------------|


                                                        |---3---|             
  Q    Q    Q       Q    Q    Q       Q    Q    Q       E   E   E  Q    Q     
-----------------|-----------------|-----------------|-----------------------|
-----------------|-----------------|-----------------|-----------------------|
------------6----|------------8----|-----------------|--5h--6p--5------------|
-------6---------|-------8---------|------------6----|-------------6---------|
--4--------------|--6--------------|-------6---------|------------------6----|
-----------------|-----------------|--4--------------|-----------------------|


  Q    Q    Q       Q    Q    Q       Q    Q    Q       Q    Q    Q     
-----------------|-----------------|-----------------|-----------------|
-----------------|-----------------|-----------------|------------1----|
------------6----|------------5----|-----------------|-------1---------|
-------6---------|-------5---------|------------3----|--1--------------|
--4--------------|--3--------------|-------3---------|-----------------|
-----------------|-----------------|--1--------------|-----------------|


                    |---3---|                                 
  Q    Q    Q       E   E   E  Q    Q         Q    Q    Q     
-----------------|-----------------------|-------------------|
-----------------|--1h--2p--1------------|-------------------|
------------3----|-------------3---------|--------------8----|
-------3---------|------------------3----|---------8---------|
--1--------------|-----------------------|--4g6--------------|
-----------------|-----------------------|-------------------|


  |---3---|                                                                 
  E   E   E  Q    Q       H        Q       Q    Q    Q       H        Q     
-----------------------|----------------|-----------------|----------------|
--8h--9p--8------------|----------------|-----------------|----------------|
-------------8---------|----------------|--1--------------|----------------|
------------------8----|----------------|-------2---------|----------------|
-----------------------|-----------2----|------------2----|-----------4----|
-----------------------|--0-------------|-----------------|--2-------------|


  Q    Q    Q       H        Q       Q    Q    Q       Q    Q    Q     
-----------------|----------------|-----------------|-----------------|
-----------------|----------------|-----------------|-----------------|
--3--------------|----------------|--5--------------|-----------------|
-------4---------|----------------|-------6---------|------------6----|
------------4----|-----------6----|------------6----|-------6---------|
-----------------|--4-------------|-----------------|--4--------------|


  Q    Q    Q       H        Q       Q    Q    Q       H        Q     
-----------------|----------------|-----------------|----------------|
-----------------|----------------|-----------------|----------------|
--5--------------|----------------|--1--------------|----------------|
-------6---------|----------------|-------2---------|----------------|
------------6----|-----------2----|------------2----|-----------4----|
-----------------|--0-------------|-----------------|--2-------------|


  Q    Q    Q       H        Q       Q    Q    Q       Q    Q    Q     
-----------------|----------------|-----------------|-----------------|
-----------------|----------------|-----------------|-----------------|
--3--------------|----------------|--5--------------|--5--------------|
-------4---------|----------------|-------6---------|-------6---------|
------------4----|-----------6----|------------6----|------------6----|
-----------------|--4-------------|-----------------|-----------------|


  Q    Q    Q       H        Q       Q    Q    Q       H        Q     
-----------------|----------------|--0--------------|----------------|
-----------------|----------------|-------0---------|----------------|
------------5----|----------------|------------1----|----------------|
-------6---------|-----------2----|-----------------|-----------4----|
--6--------------|----------------|-----------------|----------------|
-----------------|--0-------------|-----------------|--2-------------|


  Q    Q    Q       H        Q       Q    Q    Q       Q    Q    Q     
--2--------------|----------------|--4--------------|--4--------------|
-------2---------|----------------|-------4---------|-------4---------|
------------3----|----------------|------------5----|------------5----|
-----------------|-----------6----|-----------------|-----------------|
-----------------|----------------|-----------------|-----------------|
-----------------|--4-------------|-----------------|-----------------|


  Q    Q    Q        Q    Q    Q       Q    Q    Q       Q    Q    Q     
------------------|-----------------|--0--------------|-----------------|
------------------|-----------------|-------0---------|-----------------|
------------------|-----------------|------------1----|-----------------|
--6---------------|-------2----2----|-----------------|-------4---------|
-------6----6\----|-----------------|-----------------|------------4----|
------------------|--0--------------|-----------------|--2--------------|


  Q    Q    Q       Q    Q    Q       Q    Q    Q       Q    Q    Q     
--2--------------|-----------------|--4--------------|--4--------------|
-------2---------|-------4---------|-------4---------|-------4---------|
------------3----|------------5----|------------5----|------------5----|
-----------------|-----------------|-----------------|-----------------|
-----------------|-----------------|-----------------|-----------------|
-----------------|--4--------------|-----------------|-----------------|


  Q    Q    Q       Q    Q    Q       Q    Q    Q       Q    Q    Q     
-----------------|-----------------|--0--------------|-----------------|
--4--------------|-----------------|-------0---------|-----------------|
-------5---------|-----------------|------------1----|------------3----|
------------6----|------------2----|-----------------|-----------------|
-----------------|-------2---------|-----------------|-------4---------|
-----------------|--0--------------|-----------------|--2--------------|


  Q    Q    Q       Q    Q    Q       Q    Q    Q       Q    Q    Q     
--2--------------|-----------------|--4--------------|--4--------------|
-------2---------|-----------------|-------4---------|-------4---------|
------------3----|-------5---------|------------5----|------------5----|
-----------------|------------6----|-----------------|-----------------|
-----------------|-----------------|-----------------|-----------------|
-----------------|--4--------------|-----------------|-----------------|


  Q    Q    Q       Q    Q    Q       Q    Q    Q       Q    Q    Q     
-----------------|-----------------|--0--------------|-----------------|
-----------------|-----------------|-------0---------|-----------------|
-----------------|-----------------|------------1----|------------3----|
--6--------------|------------2----|-----------------|-----------------|
-------6---------|-------2---------|-----------------|-------4---------|
------------4----|--0--------------|-----------------|--2--------------|


  Q    Q    Q       Q    Q    Q       Q    Q    Q       Q    Q    Q     
--2--------------|-----------------|--4--------------|--4--------------|
-------2---------|-----------------|-------4---------|-------4---------|
------------3----|-------5---------|------------5----|------------5----|
-----------------|------------6----|-----------------|-----------------|
-----------------|-----------------|-----------------|-----------------|
-----------------|--4--------------|-----------------|-----------------|


  Q    Q    Q       Q    Q    Q       Q    Q    Q       Q    Q    Q     
-----------------|-----------------|--0--------------|-----------------|
-----------------|-----------------|-------0---------|-----------------|
-----------------|-----------------|------------1----|------------3----|
--6--------------|------------2----|-----------------|-----------------|
-------6---------|-------2---------|-----------------|-------4---------|
------------4----|--0--------------|-----------------|--2--------------|


  Q    Q    Q       Q    Q    Q       Q    Q    Q       Q    Q    Q     
--2--------------|-----------------|--4--------------|--4--------------|
-------2---------|-----------------|-------4---------|-------4---------|
------------3----|-------5---------|------------5----|------------5----|
-----------------|------------6----|-----------------|-----------------|
-----------------|-----------------|-----------------|-----------------|
-----------------|--4--------------|-----------------|-----------------|


  Q    Q    Q       Q    Q    Q       Q    Q    Q       Q    Q    Q     
-----------------|-----------------|--0--------------|-----------------|
-----------------|-----------------|-------0---------|-----------------|
-----------------|-----------------|------------1----|------------3----|
--6--------------|------------2----|-----------------|-----------------|
-------6---------|-------2---------|-----------------|-------4---------|
------------4----|--0--------------|-----------------|--2--------------|


  Q    Q    Q       Q    Q    Q       Q    Q    Q       Q    Q    Q     
--2--------------|-----------------|--4--------------|--4--------------|
-------2---------|-----------------|-------4---------|-------4---------|
------------3----|-------5---------|------------5----|------------5----|
-----------------|------------6----|-----------------|-----------------|
-----------------|-----------------|-----------------|-----------------|
-----------------|--4--------------|-----------------|-----------------|


  Q    Q    Q       Q    Q    Q       Q    Q    Q       Q    Q    Q     
-----------------|-----------------|--0--------------|-----------------|
-----------------|-----------------|-------0---------|-----------------|
-----------------|-----------------|------------1----|------------3----|
--6--------------|------------2----|-----------------|-----------------|
-------6---------|-------2---------|-----------------|-------4---------|
------------4----|--0--------------|-----------------|--2--------------|


  Q    Q    Q       Q    Q    Q       Q    Q    Q       Q    Q    Q     
--2--------------|-----------------|--4--------------|--4--------------|
-------2---------|-----------------|-------4---------|-------4---------|
------------3----|-------5---------|------------5----|------------5----|
-----------------|------------6----|-----------------|-----------------|
-----------------|-----------------|-----------------|-----------------|
-----------------|--4--------------|-----------------|-----------------|


  Q    Q    Q       Q    Q    Q       Q    Q    Q       Q    Q    Q     
-----------------|-----------------|--0--------------|-----------------|
-----------------|-----------------|-------0---------|-----------------|
-----------------|-----------------|------------1----|------------3----|
--6--------------|------------2----|-----------------|-----------------|
-------6---------|-------2---------|-----------------|-------4---------|
------------4----|--0--------------|-----------------|--2--------------|


  Q    Q    Q       Q    Q    Q       Q    Q    Q       Q    Q    Q     
--2--------------|-----------------|--4--------------|--4--------------|
-------2---------|-----------------|-------4---------|-------4---------|
------------3----|-------5---------|------------5----|------------5----|
-----------------|------------6----|-----------------|-----------------|
-----------------|-----------------|-----------------|-----------------|
-----------------|--4--------------|-----------------|-----------------|


  Q    Q    Q       Q    Q    Q       Q    Q    Q       Q    Q    Q      
-----------------|-----------------|--0--------------|-----------------||
-----------------|-----------------|-------0---------|-----------------||
-----------------|-----------------|------------1----|------------3----||
--6--------------|------------2----|-----------------|-----------------||
-------6---------|-------2---------|-----------------|-------4---------||
------------4----|--0--------------|-----------------|--2--------------||


                       Requiem for the Nameless Victims                         


                       From "Dracula Battle" by Konami
Bass



     H.              H.              H.              H.            
G||---------------|---------------|---------------|---------------|
D||---------------|---------------|---------------|---------------|
A||---------------|---------------|---------------|---------------|
E||---------------|---------------|---------------|---------------|
B||--4------------|--L------------|--4------------|--L------------|


  H.              H.              H.              H.              H.            
---------------|---------------|---------------|---------------|---------------|
---------------|---------------|---------------|---------------|---------------|
---------------|---------------|---------------|---------------|---------------|
---------------|---------------|---------------|---------------|---------------|
--4------------|--L------------|--4------------|--L------------|--4------------|


  H.              H.              H.              H.              H.            
---------------|---------------|---------------|---------------|---------------|
---------------|---------------|---------------|---------------|---------------|
---------------|---------------|---------------|---------------|---------------|
---------------|---------------|---------------|---------------|---------------|
--L------------|--4------------|--L------------|--4------------|--L------------|


  H.              H.              H.              H.              H.            
---------------|---------------|---------------|---------------|---------------|
---------------|---------------|---------------|---------------|---------------|
---------------|---------------|---------------|---------------|---------------|
---------------|---------------|---------------|---------------|---------------|
--L------------|--L------------|--L------------|--L------------|--L------------|


  H.              H.              H.              H.            
---------------|---------------|---------------|---------------|
---------------|---------------|---------------|---------------|
---------------|--1------------|---------------|---------------|
---------------|---------------|---------------|--4------------|
--L------------|---------------|--4------------|---------------|


  Q    H           H.              H.              H.            
----------------|---------------|---------------|---------------|
----------------|---------------|---------------|---------------|
-------5--------|---------------|---------------|---------------|
--L-------------|---------------|---------------|--4------------|
----------------|--2------------|--4------------|---------------|


  Q    Q    Q       H.              H.              H.            
-----------------|---------------|---------------|---------------|
-----------------|---------------|---------------|---------------|
------------3----|--4------------|--3------------|---------------|
--L----6---------|---------------|---------------|--1------------|
-----------------|---------------|---------------|---------------|


  H.              H.              H.              H.              H.            
---------------|---------------|---------------|---------------|---------------|
---------------|---------------|---------------|---------------|---------------|
---------------|---------------|---------------|--3------------|--L------------|
---------------|---------------|--3------------|---------------|---------------|
--4------------|--3------------|---------------|---------------|---------------|


  H.              H.              H.              Q    H         
---------------|---------------|---------------|----------------|
---------------|---------------|---------------|----------------|
--1------------|---------------|---------------|-------5--------|
---------------|---------------|--4------------|--L-------------|
---------------|--4------------|---------------|----------------|


  H.              H.              H.              Q    Q    Q     
---------------|---------------|---------------|-----------------|
---------------|---------------|---------------|-----------------|
---------------|---------------|---------------|------------3----|
---------------|---------------|--4------------|--L----6---------|
--2------------|--4------------|---------------|-----------------|


  H.              H.              H.              H.              H.            
---------------|---------------|---------------|---------------|---------------|
---------------|---------------|---------------|---------------|---------------|
--4------------|--3------------|---------------|---------------|---------------|
---------------|---------------|--1------------|---------------|---------------|
---------------|---------------|---------------|--4------------|--3------------|


  H.              Q    Q    Q       Q    Q    Q       H.            
---------------|-----------------|-----------------|---------------|
---------------|-----------------|-----------------|---------------|
---------------|--3---------3----|--L----3---------|---------------|
--3------------|-------3---------|------------3----|--1------------|
---------------|-----------------|-----------------|---------------|


  H        Q       H.              H.              H.            
----------------|---------------|---------------|---------------|
----------------|---------------|---------------|---------------|
----------------|---------------|---------------|---------------|
--L--------1----|--1------------|--0------------|---------------|
----------------|---------------|---------------|--3------------|


  H.              H        Q       H        Q       H.            
---------------|----------------|----------------|---------------|
---------------|----------------|----------------|---------------|
---------------|--0-------------|----------------|---------------|
--0------------|-----------3----|--2-------------|--3------------|
---------------|----------------|-----------3----|---------------|


  H.              H.              H.              H.            
---------------|---------------|---------------|---------------|
---------------|---------------|---------------|---------------|
---------------|--0------------|---------------|---------------|
---------------|---------------|---------------|--3------------|
--4------------|---------------|--3------------|---------------|


  H        Q       H.              H.              H.            
----------------|---------------|---------------|---------------|
----------------|---------------|---------------|---------------|
----------------|--3------------|---------------|---------------|
--L--------3----|---------------|--3------------|--1------------|
----------------|---------------|---------------|---------------|


  H        Q       H.              H.              H.            
----------------|---------------|---------------|---------------|
----------------|---------------|---------------|---------------|
----------------|---------------|---------------|---------------|
--L--------1----|--1------------|--0------------|---------------|
----------------|---------------|---------------|--3------------|


  H.              H        Q       H        Q       H.            
---------------|----------------|----------------|---------------|
---------------|----------------|----------------|---------------|
---------------|--0-------------|----------------|---------------|
--0------------|-----------3----|--2-------------|--3------------|
---------------|----------------|-----------3----|---------------|


  H.              H.              H.              H.              H.            
---------------|---------------|---------------|---------------|---------------|
---------------|---------------|---------------|---------------|---------------|
---------------|--0------------|---------------|---------------|--3------------|
---------------|---------------|---------------|--3------------|---------------|
--4------------|---------------|--3------------|---------------|---------------|


  H.              Q    Q    Q       H.              H.            
---------------|-----------------|---------------|---------------|
---------------|-----------------|---------------|---------------|
---------------|-----------------|--3------------|--L------------|
--1------------|--L----1----1----|---------------|---------------|
---------------|-----------------|---------------|---------------|


  H.              H        Q       H.              H.            
---------------|----------------|---------------|---------------|
---------------|----------------|---------------|---------------|
--3------------|--L-------------|--1------------|---------------|
---------------|-----------3----|---------------|---------------|
---------------|----------------|---------------|--4------------|


  H        Q       Q    Q    Q       H        Q       H.            
----------------|-----------------|----------------|---------------|
----------------|-----------------|----------------|---------------|
----------------|-----------------|----------------|---------------|
--4--------4----|--L--------------|----------------|---------------|
----------------|-------4----3----|--2--------2----|--4------------|


  H        Q       Q    Q    Q       H        Q       H        Q     
----------------|-----------------|----------------|----------------|
----------------|-----------------|----------------|----------------|
----------------|------------3----|--4--------4----|--3--------3----|
--4--------4----|--L----6---------|----------------|----------------|
----------------|-----------------|----------------|----------------|


  H        Q       H        Q       H        Q       H        Q     
----------------|----------------|----------------|----------------|
----------------|----------------|----------------|----------------|
----------------|----------------|----------------|----------------|
--1--------1----|----------------|----------------|--3--------3----|
----------------|--4--------4----|--3--------3----|----------------|


  H        Q       Q    Q    Q       H        Q       H        Q     
----------------|-----------------|----------------|----------------|
----------------|-----------------|----------------|----------------|
--3--------3----|--3----3----2----|--1--------1----|----------------|
----------------|-----------------|----------------|----------------|
----------------|-----------------|----------------|--4--------4----|


  H        Q       Q    Q    Q       H        Q       H        Q     
----------------|-----------------|----------------|----------------|
----------------|-----------------|----------------|----------------|
----------------|-----------------|----------------|----------------|
--4--------4----|--4--------------|----------------|----------------|
----------------|-------4----3----|--2--------2----|--4--------4----|


  H        Q       Q    Q    Q       H        Q       H        Q     
----------------|-----------------|----------------|----------------|
----------------|-----------------|----------------|----------------|
----------------|------------3----|--4--------4----|--3--------3----|
--4-------------|--4----6---------|----------------|----------------|
-----------4----|-----------------|----------------|----------------|


  H        Q       H        Q       H        Q       Q    Q    Q     
----------------|----------------|----------------|-----------------|
----------------|----------------|----------------|-----------------|
----------------|----------------|----------------|-----------------|
--1--------1----|----------------|----------------|--3----3----3----|
----------------|--4--------4----|--3--------3----|-----------------|


  Q    Q    Q       Q    Q    Q       H        Q       H        Q     
-----------------|-----------------|----------------|----------------|
-----------------|-----------------|----------------|----------------|
--3---------3----|--3--------------|----------------|----------------|
-------3---------|-----------------|--1--------1----|--L--------1----|
-----------------|-------3----5----|----------------|----------------|


  H        Q       Q    Q    Q       H        Q       H        Q     
----------------|-----------------|----------------|----------------|
----------------|-----------------|----------------|----------------|
----------------|-----------------|----------------|----------------|
--1--------1----|--0----0----0----|----------------|--0--------0----|
----------------|-----------------|--3--------3----|----------------|


  H        E  E     Q    Q    Q       H        Q       H        Q     
-----------------|-----------------|----------------|----------------|
-----------------|-----------------|----------------|----------------|
--0--------------|-----------------|----------------|----------------|
-----------3--3--|--2----2---------|--3--------3----|----------------|
-----------------|------------3----|----------------|--4--------4----|


  H        Q       H        Q       H        Q       Q    Q    Q     
----------------|----------------|----------------|-----------------|
----------------|----------------|----------------|-----------------|
--0--------0----|----------------|----------------|-----------------|
----------------|----------------|--3--------3----|--3---------3----|
----------------|--3--------3----|----------------|-------3---------|


  Q    Q    Q       Q    Q    Q       H        Q       H        Q     
-----------------|-----------------|----------------|----------------|
-----------------|-----------------|----------------|----------------|
--3----3----3----|--3----3----3----|----------------|----------------|
-----------------|-----------------|--1--------1----|--L--------1----|
-----------------|-----------------|----------------|----------------|


  H        Q       H        Q       H        Q       H        Q     
----------------|----------------|----------------|----------------|
----------------|----------------|----------------|----------------|
----------------|----------------|----------------|----------------|
--1--------1----|--0--------0----|----------------|--0--------0----|
----------------|----------------|--3--------3----|----------------|


  H        E  E     Q    Q    Q       H        Q       H        Q     
-----------------|-----------------|----------------|----------------|
-----------------|-----------------|----------------|----------------|
--0--------------|-----------------|----------------|----------------|
-----------3--3--|--2----2---------|--3--------3----|----------------|
-----------------|------------3----|----------------|--4--------4----|


  H        Q       H        Q       H        Q       Q    Q    Q     
----------------|----------------|----------------|-----------------|
----------------|----------------|----------------|-----------------|
--0--------0----|----------------|----------------|-----------------|
----------------|----------------|--3--------3----|--L----3----1----|
----------------|--3--------3----|----------------|-----------------|


  H        Q       Q    Q    Q       Q    Q    Q       H        Q     
----------------|-----------------|-----------------|----------------|
----------------|-----------------|-----------------|----------------|
----------------|-----------------|-----------------|--3-------------|
----------------|-----------------|--3----5----6----|-----------3----|
--4--------4----|--L----4----3----|-----------------|----------------|


  H        Q       Q    Q    Q       H        Q       H        Q     
----------------|-----------------|----------------|----------------|
----------------|-----------------|----------------|----------------|
----------------|-----------------|----------------|----------------|
--1--------1----|--L----1----3----|--4--------4----|--3--------3----|
----------------|-----------------|----------------|----------------|


  H        Q       H        Q       H        Q       H        Q     
----------------|----------------|----------------|----------------|
----------------|----------------|----------------|----------------|
----------------|----------------|----------------|--3--------3----|
--1--------1----|----------------|----------------|----------------|
----------------|--1--------1----|--2--------2----|----------------|


  Q    Q    Q       Q    Q    Q       H        Q       H        Q     
-----------------|-----------------|----------------|----------------|
-----------------|-----------------|----------------|----------------|
--1--------------|-----------------|----------------|----------------|
-------1----0----|-----------------|--4--------4----|--3--------3----|
-----------------|--4----4----4----|----------------|----------------|


  H        Q       H        Q       H        Q       H        Q     
----------------|----------------|----------------|----------------|
----------------|----------------|----------------|----------------|
----------------|--3--------3----|----------------|----------------|
--1--------1----|----------------|----------------|----------------|
----------------|----------------|--2--------2----|--2--------2----|


  Q    Q    Q       Q    Q    Q       H        Q       H        Q     
-----------------|-----------------|----------------|----------------|
-----------------|-----------------|----------------|----------------|
-----------------|-----------------|--2--------2----|--1--------1----|
-----------------|-----------------|----------------|----------------|
--4----4----4----|--2----2----2----|----------------|----------------|


  H        Q       H        Q       H        Q       H        Q     
----------------|----------------|----------------|----------------|
----------------|--1--------1----|----------------|----------------|
----------------|----------------|----------------|----------------|
--4--------4----|----------------|--0--------0----|----------------|
----------------|----------------|----------------|--4--------4----|


  Q    Q    Q       Q    Q    Q       H        Q       H        Q     
-----------------|-----------------|----------------|----------------|
-----------------|-----------------|----------------|----------------|
-----------------|-----------------|--2--------2----|--1--------1----|
-----------------|--2---------2----|----------------|----------------|
--2----4----5----|-------2---------|----------------|----------------|


  H        Q       H        Q       H        Q       Q    Q    Q     
----------------|----------------|----------------|-----------------|
----------------|----------------|----------------|-----------------|
----------------|----------------|----------------|-----------------|
--4--------4----|----------------|----------------|-----------------|
----------------|--4--------4----|--2--------2----|--2----2----2----|


  H        Q       Q    Q    Q       Q    Q    Q       Q    Q    Q     
----------------|-----------------|-----------------|-----------------|
----------------|-----------------|-----------------|-----------------|
----------------|-----------------|-----------------|-----------------|
----------------|-----------------|-----------------|--3----4----6----|
--4--------4----|--4----4----4----|--4----4----4----|-----------------|


  H.              H.              H.              H.            
---------------|---------------|---------------|---------------|
---------------|---------------|---------------|---------------|
---------------|---------------|---------------|---------------|
---------------|---------------|---------------|---------------|
--4------------|--L------------|--L------------|--L------------|


  H        Q       H.              H        Q       Q    Q    Q     
----------------|---------------|----------------|-----------------|
----------------|---------------|----------------|-----------------|
--1--------1----|---------------|----------------|-----------------|
----------------|---------------|--4--------4----|--L--------------|
----------------|--4------------|----------------|-------4----3----|


  H        Q       H.              H        Q       Q    Q    Q     
----------------|---------------|----------------|-----------------|
----------------|---------------|----------------|-----------------|
----------------|---------------|----------------|------------3----|
----------------|---------------|--4--------4----|--L----6---------|
--2--------2----|--4------------|----------------|-----------------|


  H        Q       H        Q       H        Q       H        Q     
----------------|----------------|----------------|----------------|
----------------|----------------|----------------|----------------|
--4--------4----|--3--------3----|----------------|----------------|
----------------|----------------|--1--------1----|----------------|
----------------|----------------|----------------|--4--------4----|


  H        Q       H        Q       H        Q       Q    Q    Q     
----------------|----------------|----------------|-----------------|
----------------|----------------|----------------|-----------------|
----------------|----------------|--3--------3----|--3----3----2----|
----------------|--3--------3----|----------------|-----------------|
--3--------3----|----------------|----------------|-----------------|


  H        Q       H        Q       H        Q       Q    Q    Q     
----------------|----------------|----------------|-----------------|
----------------|----------------|----------------|-----------------|
--1--------1----|----------------|----------------|--5--------------|
----------------|----------------|--4--------4----|-------4---------|
----------------|--4--------4----|----------------|------------3----|


  H        Q       H        Q       H        Q       Q    Q    Q     
----------------|----------------|----------------|-----------------|
----------------|----------------|----------------|-----------------|
----------------|----------------|----------------|------------3----|
----------------|----------------|--4-------------|--4----6---------|
--2--------2----|--4--------4----|-----------4----|-----------------|


  H        Q       H        Q       H        Q       H        Q     
----------------|----------------|----------------|----------------|
----------------|----------------|----------------|----------------|
--4--------4----|--3--------3----|----------------|----------------|
----------------|----------------|--1--------1----|----------------|
----------------|----------------|----------------|--4--------4----|


  H        Q       Q    Q    Q       H.              Q    Q    Q     
----------------|-----------------|---------------|-----------------|
----------------|-----------------|---------------|-----------------|
--1--------1----|--1----3----4----|--6------------|-----------------|
----------------|-----------------|---------------|-----------------|
----------------|-----------------|---------------|--4----2----4----|


  Q    Q    Q       Q    Q    Q       Q    Q    Q       Q    Q    Q     
-----------------|-----------------|-----------------|-----------------|
-----------------|-----------------|-----------------|-----------------|
-----------------|-----------------|-----------------|-----------------|
-----------------|-----------------|--2----2----2----|--2----2----2----|
--5----5----5----|--5----5----5----|-----------------|-----------------|


  Q    Q    Q       Q    Q    Q       Q    Q    Q       Q    Q    Q     
-----------------|-----------------|-----------------|-----------------|
-----------------|-----------------|-----------------|-----------------|
-----------------|-----------------|-----------------|-----------------|
--4----4----4----|--4---------4----|--4---------4----|--4---------4----|
-----------------|-------4---------|-------4---------|-------4---------|


  Q    Q    Q       Q    Q    Q       Q    Q    Q       Q    Q    Q     
-----------------|-----------------|-----------------|-----------------|
-----------------|-----------------|-----------------|-----------------|
-----------------|-----------------|-----------------|-----------------|
-----------------|-----------------|--2----2----2----|--2----2----2----|
--5----5----5----|--5----5----5----|-----------------|-----------------|


  Q    Q    Q       Q    Q    Q       Q    Q    Q       Q    Q    Q     
-----------------|-----------------|-----------------|-----------------|
-----------------|-----------------|-----------------|-----------------|
-----------------|-----------------|-----------------|-----------------|
--4----4----4----|--4---------4----|--4---------4----|--4---------4----|
-----------------|-------4---------|-------4---------|-------4---------|


  Q    Q    Q       Q    Q    Q       Q    Q    Q       Q    Q    Q     
-----------------|-----------------|-----------------|-----------------|
-----------------|-----------------|-----------------|-----------------|
-----------------|-----------------|-----------------|-----------------|
-----------------|-----------------|--2----2----2----|--2----1----2----|
--5----5----5----|--5----4----5----|-----------------|-----------------|


  Q    Q    Q       Q    Q    Q       Q    Q    Q       Q    Q    Q     
-----------------|-----------------|-----------------|-----------------|
-----------------|-----------------|-----------------|-----------------|
-----------------|-----------------|-----------------|-----------------|
--4----4----4----|--4---------4----|--4---------4----|--4----4---------|
-----------------|-------4---------|-------4---------|------------4----|


  Q    Q    Q       Q    Q    Q       Q    Q    Q       Q    Q    Q     
-----------------|-----------------|-----------------|-----------------|
-----------------|-----------------|-----------------|-----------------|
-----------------|-----------------|-----------------|-----------------|
-----------------|-----------------|--2----2----2----|--2----1----2----|
--5----5----5----|--5----4----5----|-----------------|-----------------|


  Q    Q    Q       Q    Q    Q       Q    Q    Q       Q    Q    Q     
-----------------|-----------------|-----------------|-----------------|
-----------------|-----------------|-----------------|-----------------|
-----------------|-----------------|-----------------|-----------------|
--4----4----4----|--4---------4----|--4---------4----|--4----4---------|
-----------------|-------4---------|-------4---------|------------4----|


  Q    Q    Q       Q    Q    Q       Q    Q    Q       Q    Q    Q     
-----------------|-----------------|-----------------|-----------------|
-----------------|-----------------|-----------------|-----------------|
-----------------|-----------------|-----------------|-----------------|
-----------------|-----------------|--2----2----2----|--2----1----2----|
--5----5----5----|--5----4----5----|-----------------|-----------------|


  Q    Q    Q       Q    Q    Q       E  E  E  E  E  E     E  E  E  E  E  E   
-----------------|-----------------|--------------------|--------------------|
-----------------|-----------------|--------------------|--------------------|
-----------------|-----------------|--------------------|--------------------|
--4---------4----|--4---------4----|--4--6--8--6--4--2--|--------------------|
-------4---------|-------4---------|--------------------|--4--4--4--4--4--4--|


  Q    Q    Q       Q    Q    Q       Q    Q    Q       Q    Q    Q     
-----------------|-----------------|-----------------|-----------------|
-----------------|-----------------|-----------------|-----------------|
-----------------|--7--------------|-----------------|--9--------------|
------------7----|-------7---------|------------9----|-------9---------|
--5----5---------|------------5----|--7----7---------|------------7----|


  Q    Q    Q       Q    Q    Q       E  E  E  E  E  E     E  E  E  E  E  E   
-----------------|-----------------|--------------------|--------------------|
-----------------|-----------------|--6-----------------|--------------6--8--|
-----------------|--6----6----6----|-----6--------------|-----------6--------|
--4----4----4----|-----------------|--------8--6--4-----|--4--6--9-----------|
-----------------|-----------------|-----------------4--|--------------------|


  Q    Q    Q       Q    Q    Q       Q    Q    Q       Q    Q    Q     
-----------------|-----------------|-----------------|-----------------|
-----------------|-----------------|-----------------|-----------------|
-----------------|-----------------|-----------------|-----------------|
-----------------|-----------------|--2----2----2----|--2----1----2----|
--5----5----5----|--5----4----5----|-----------------|-----------------|


  Q    Q    Q       Q    Q    Q       E  E  E  E  E  E     E  E  E  E  E  E   
-----------------|-----------------|--------------------|--------------------|
-----------------|-----------------|--------------------|--------------------|
-----------------|-----------------|--------------------|--------------------|
--4---------4----|--4---------4----|--4--6--8--6--4--2--|--------------------|
-------4---------|-------4---------|--------------------|--4--4--4--4--4--4--|


  Q    Q    Q       Q    Q    Q       Q    Q    Q       Q    Q    Q     
-----------------|-----------------|-----------------|-----------------|
-----------------|-----------------|-----------------|-----------------|
-----------------|--7--------------|-----------------|--9--------------|
------------7----|-------7---------|------------9----|-------9---------|
--5----5---------|------------5----|--7----7---------|------------7----|


  Q    Q    Q       Q    Q    Q       E  E  E  E  E  E     E  E  E  E  E  E   
-----------------|-----------------|--------------------|--------------------|
-----------------|-----------------|--6-----------------|--------------6--8--|
-----------------|--6----6----6----|-----6--------------|-----------6--------|
--4----4----4----|-----------------|--------8--6--4-----|--4--6--9-----------|
-----------------|-----------------|-----------------4--|--------------------|


  Q    Q    Q       Q    Q    Q       Q    Q    Q       Q    Q    Q     
-----------------|-----------------|-----------------|-----------------|
-----------------|-----------------|-----------------|-----------------|
-----------------|-----------------|-----------------|-----------------|
-----------------|-----------------|--2----2----2----|--2----2----2----|
--5----5----5----|--5----5----5----|-----------------|-----------------|


  Q    Q    Q       Q    Q    Q       Q    Q    Q       Q    Q    Q     
-----------------|-----------------|-----------------|-----------------|
-----------------|-----------------|-----------------|-----------------|
-----------------|-----------------|-----------------|-----------------|
--4----4----4----|--4---------4----|--4---------4----|--4---------4----|
-----------------|-------4---------|-------4---------|-------4---------|


  Q    Q    Q       Q    Q    Q       Q    Q    Q       Q    Q    Q     
-----------------|-----------------|-----------------|-----------------|
-----------------|-----------------|-----------------|-----------------|
-----------------|-----------------|-----------------|-----------------|
-----------------|-----------------|--2----2----2----|--2----2----2----|
--5----5----5----|--5----5----5----|-----------------|-----------------|


  Q    Q    Q       Q    Q    Q       Q    Q    Q       Q    Q    Q     
-----------------|-----------------|-----------------|-----------------|
-----------------|-----------------|-----------------|-----------------|
-----------------|-----------------|-----------------|-----------------|
--4----4----4----|--4---------4----|--4---------4----|--4---------4----|
-----------------|-------4---------|-------4---------|-------4---------|


  Q    Q    Q       Q    Q    Q       Q    Q    Q      
-----------------|-----------------|-----------------||
-----------------|-----------------|-----------------||
-----------------|-----------------|-----------------||
-----------------|-----------------|--2----2----2----||
--5----5----5----|--5----4----5----|-----------------||

3 comments on Requiem for the Nameless Victims

Bravo!

5

You deserve a medal for this. It's awesome!

WTF

5

esto es lo mas hermoso que e mirado en mi vida O_O..........M_M si es tan hermoso

Oh my god...so I'm listening

5

Oh my god...so I'm listening to this song, thinking "ya know, I'd like to play this"...I go searching thinking there's no way someone had already tabbed it, but here I stand corrected!!! Thank you so much!