Login or Register to remove this ad. | Advertise Here

Kanae's Feelings (Byousoku 5 Centimeter) Guitar Tab

Submitted: Aug 26, 2009 by hslesperance (Last updated: Feb 06, 2010)

5
Average: 5 (7 votes)
Download | Listen
Game: Byousoku 5 Centimeter
Composer(s): Tenmon, Masayoshi Yamazaki
Style: 2 or more instruments, Transcription

AutoScroll: Slow | Medium | Fast
Kanae's Feelings
5 Centimeters Per Second
Composed by Tenmon
Tabbed by hslesperance
8/24/09

Standard Tuning


Guitar 1

e----------3---------------3--------------
B---3/5-------------3/5-------------1/3---
G-----------------------------------------
D-----------------------------------------
A-----------------------------------------
E-----------------------------------------

e-----------------------------------------
B---0----1--0-----------------------------
G--------------2------2--0--------0----2--
D-----------------------------------------
A-----------------------------------------
E-----------------------------------------

e-----------------------------------------
B---1------1----3----1----3/5--5----------
G-----------------------------------------
D-----------------------------------------
A-----------------------------------------
E-----------------------------------------

e----------3---------------3--------------
B---3/5-------------3/5-------------1/3---
G-----------------------------------------
D-----------------------------------------
A-----------------------------------------
E-----------------------------------------

e-----------------------------------------
B---0----1--0-----------------------------
G--------------2------2--0--------0----2--
D-----------------------------------------
A-----------------------------------------
E-----------------------------------------

e-----------------------------------------
B---1------1----3----1----3----1----------
G-----------------------------------------
D------------------------------2----------
A-----------------------------------------
E-----------------------------------------

e---8---------8---------------------------
B---10-------------8--------8----8/10-----
G---9-------------------------------------
D-----------------------------------------
A-----------------------------------------
E-----------------------------------------

e---5--7--8--------8----8h10----8----7----
B---------5--------5----8---------------10
G-----------------------------------------
D-----------------------------------------
A-----------------------------------------
E-----------------------------------------

e---3--1--0--------0-------------3--------
B-----------------------3-------------1---
G---------0--------0----0-------------2---
D-------------------------------------2---
A-----------------------------------------
E-----------------------------------------

e---------0--------0----------------------
B---1--3----------------3--------5\3--1---
G---------2-------------------------------
D-----------------------------------------
A-----------------------------------------
E-----------------------------------------

e-----------------------------------------
B---1--3--3/5--------5----3----1----0----1
G---------2---------------1--------------2
D-----------------------------------------
A-----------------------------------------
E-----------------------------------------

e------------------3----0-----------0-----
B---1--3--3-------------------------------
G---------0-------------0-----------1-----
D-----------------------------------------
A-----------------------------------------
E-----------------------------------------

e---7----8--------12----10----------------
B--------6--------------------13----12----
G-----------------------------------------
D-----------------------------------------
A-----------------------------------------
E-----------------------------------------

e---8-------------------------------------
B---10--------------------10--12--13------
G---9---------------------9---12--10------
D-----------------------------------------
A-----------------------------------------
E-----------------------------------------
                            ^
e---12----10----------------8-------------
B---------------13----12----8-------------
G---------------------------9-------------
D-----------------------------------------
A-----------------------------------------
E-----------------------------------------


Guitar 2

e------------0-----------------0----------
B---------------1-----------------1-------
G---------0--------0--------0--------0----
D------2-----------------2----------------
A---3-----------------3-------------------
E-----------------------------------------

e------------0-----------------0----------
B---------------1-----------------1-------
G---------0--------0--------0--------0----
D------2-----------------2----------------
A---3-----------------3-------------------
E-----------------------------------------

e------------3-----------------0----------
B---------------3--0--------------1-------
G---------0-----------------2--------2----
D------0-----------------2----------------
A---------------------0-------------------
E---3-------------------------------------

e------------0-----------------1----------
B---------------0-----------------1-------
G---------0--------0-----------------2----
D------2--------------------3-------------
A------------------------3----------------
E---0-----------------1-------------------

e------------3-----------------0----------
B---------------3--0--------------1-------
G---------0-----------------0--------0----
D------0-----------------2----------------
A---------------------3-------------------
E---3-------------------------------------

e------------0-----------------0----------
B---------------1-----------------1-------
G---------0--------0--------0--------0----
D------2-----------------2----------------
A---3-----------------3-------------------
E-----------------------------------------

e------------3-----------------0----------
B---------------3--0--------------1-------
G---------0-----------------2--------2----
D------0-----------------2----------------
A---------------------0-------------------
E---3-------------------------------------

e------------0-----------------1----------
B---------------0-----------------1-------
G---------0--------0-----------------2----
D------2--------------------3-------------
A------------------------3----------------
E---0-----------------1-------------------

e------------3----------------------------
B---------------3--0----------------------
G---------0-----------2-------------------
D------0--------------2-------------------
A---------------------0-------------------
E---3-------------------------------------

e------------0-----------------0----------
B---------------1-----------------0-------
G---------2--------2--------0--------0----
D------2-----------------2----------------
A---0-----------------2-------------------
E-----------------------------------------

e------------1-----------------1----------
B---------------1-----------------1-------
G---------2--------2--------2--------2----
D------3-----------------3----------------
A---------------------3-------------------
E---1-------------------------------------

e------------0-----------------0----------
B---------------1-----------------0-------
G---------2-----------------0--------0----
D------2-----------2-----2----------------
A---0-------------------------------------
E---------------------3-------------------

e------------1----------------------------
B---------------1--------------1----------
G---------2--------2--------2-----2-------
D------3-----------------3-----------3----
A---------------------3-------------------
E---1-------------------------------------

e------------0-----------------3----------
B---------------1-----------0-----3-------
G---------0-----0--2-----0----------------
D------2-----------------------------0----
A---3-----------------2-------------------
E-----------------------------------------

e------------0-----------------0----------
B---------------1-----------------1-------
G---------2--------2--------2--------2----
D------2-----------------2----------------
A---0-----------------0-------------------
E-----------------------------------------

e------------1-----------------0----------
B---------------1-----------------0-------
G---------2--------2--------1-------------
D------3-----------------2-----------0----
A-----------------------------------------
E---1-----------------0-------------------

e---------0--------------------0----------
B------------1--------------------1-------
G------------------2--------2--------2----
D------2--------2--------2--2-------------
A---0-----------------0-------------------
E-----------------------------------------

e------------1-----------------0----------
B---------1-----1-----------0-----0-------
G------------------2-----1----------------
D------3-----------------------------0----
A---3-----------------2-------------------
E-----------------------------------------

e------------0-----------------3----------
B---------------1-----------------3--0----
G---------2-----------------0-------------
D------2-----------0-----0----------------
A---0-------------------------------------
E---------------------3-------------------

e------------0--------------0-------------
B---------------1--------------0----------
G---------0--------1-----1-----------1----
D------2--------------2-----------2-------
A---3-------------------------------------
E-----------------------------------------

e------------1-----------------3----------
B---------------1-----------0-----3--0----
G---------2--------2-----0----------------
D------3----------------------------------
A-----------------------------------------
E---1-----------------3-------------------

e------------0-----------------0----------
B---------------1-----------------1-------
G---------2--------2--------2-----2--0----
D------2-----------------2----------------
A---0-----------------0-------------------
E-----------------------------------------
                                        ^
e------------1-----------------3----------
B---------1-----1-----------0-----0-------
G------------------0-----0-----------0--0-
D------3--------------0-----------------2-
A---3-----------------------------------3-
E-----------------------------------------
              ^
e-------------0---------------------------
B---1h3--1h3--1---------------------------
G---0----0----0---------------------------
D-------------2---------------------------
A-----------------------------------------
E-----------------------------------------

/ - slide up
\ - slide down
h - hammer on

3 comments on Kanae's Feelings

Thanks a lot dude. This tab

5

Thanks a lot dude. This tab is SWEET.

Great job

5

Great job

Sick tab

5

I'll just add one thing - This part:

e---8---------8---------------------------
B---10-------------8--------8----8/10-----
G---9-------------------------------------
D-----------------------------------------
A-----------------------------------------
E-----------------------------------------

Sounds like it has a slide on that first note, like this:

e-7/8---------8---------------------------
B---10-------------8--------8----8/10-----
G---9-------------------------------------
D-----------------------------------------
A-----------------------------------------
E-----------------------------------------

Very good job on the tab~~~