Login or Register to remove this ad. | Advertise Here

The Feeling That Doesn't Reach (Byousoku 5 Centimeter) Guitar Tab

Submitted: Dec 09, 2010 by hslesperance

5
Average: 5 (1 vote)
Download | Listen
Game: Byousoku 5 Centimeter
Composer(s): Tenmon, Masayoshi Yamazaki
Style: Fingerstyle, Transcription

AutoScroll: Slow | Medium | Fast
The Feeling That Doesn't Reach
5 Centimeters per Second
Composed by Tenmon
Tabbed by hslesperance
12/9/10

Standard Tuning

    ^             ^             ^        ^    ^
e---1----4--------1----4-------------------------------------
B---2-------------2-------------4--------1----2--1-----------
G---1-------------1-------------1--------1----------3--------
D----------------------------------------1----3--------------
A------------------------------------------------------------
E------------------------------------------------------------
    ^             ^             ^         
e-----------------------------------------------1------------
B----------------------2--------4----2------4------------2---
G---1--------1----3-------------5-------------1--------------
D---3-------------4-------------6----------------------------
A---3-------------4------------------------------------------
E------------------------------------------------------------
    ^               ^                              g
e---1-----4---------1-----4----------------------------------
B---2---------------2----------------4--------1----1h2--1----
G---1--1---------1--1--1----------1------------------------3-
D------------------------------------------------------------
A------------------------------------------------------------
E------------------------------------------------------------
       g               ^             ^              ^    
e---------------------------------------------------9---8--9-
B---------------------------2--------4---------4----11-------
G--------1-------------3-------------5----6---------10-------
D---3--3---------------4----4--------6----6------------------
A-------------3--------4-------------------------------------
E------------------------------------------------------------
             ^                    ^                   ^
e------------9---8--9-------------9---8--9------------9---8--
B---9--------11--------9------11--11--------11--------11-----
G------10----10-----------10------11------------11----11-----
D------------------------------------------------------------
A------------------------------------------------------------
E------------------------------------------------------------

e---9--------------------------------------------------------
B------11--------2--1--2----------2--1--2-----------2--1--2--
G----------11----3--------3-------3--------3-----3--3--------
D----------------3-----------3----3-----------3-----4--------
A------------------------------------------------------------
E------------------------------------------------------------
            ^               ^                             ^
e---------------------------3-----6--------3-----6--------1--
B-----------1---------4--------------------4--------------3--
G---3-------1------1-----1--3--3-----------3--3-----------3--
D------4----1------------------------------------------------
A------------------------------------------------------------
E------------------------------------------------------------
                        ^              g               g
e--------------------------------------------------------1---
B---3----4--3--1------------------------------4--------------
G---3----3--------------3---------3----3h5-------------3-----
D--------5--------------3------------------------------------
A-----------------------5------5-----------------------------
E------------------------------------------------------------
              g                             ^              ^
e--------1----------------------------------------------3--1-
B---4-----------4---------------------------1----4---------3-
G-------------3------------------------3----1----5---------3-
D----------------------------3------3-------1----6-----------
A------------------------------------------------------------
E------------------------------------------------------------
              ^
e--------1-----------------------------------------------6---
B---4---------4-------------------------------------6----6---
G---3----3----0--------------------------------7---------7---
D-------------1----------------------------------------------
A------------------------------------------------------------
E------------------------------------------------------------

h - hammer on
g - grace note
^ - downstroke arpeggio

6 comments on The Feeling That Doesn't Reach

That was fast .. guitar pro

That was fast .. guitar pro something ?!

No, I just used notepad.

No, I just used notepad.

...

As a notepad user...you did well!

...

Also for tabbing it!

You could upload a mid ..

You could upload a mid .. cause this doesn't sound exactly like the original ..

Jesus your fast

Jesus your fast