Login or Register to remove this ad. | Advertise Here

End Theme (Byousoku 5 Centimeter) Guitar Tab

Submitted: Nov 30, 2010 by hslesperance

5
Average: 5 (2 votes)
Download | Listen
Game: Byousoku 5 Centimeter
Composer(s): Tenmon, Masayoshi Yamazaki
Style: Fingerstyle, Transcription

AutoScroll: Slow | Medium | Fast
    
End Theme
5 Centimeters per Second
Composed by Tenmon
Tabbed by hslesperance
11/30/10

Standard Tuning

                               ^
e---7----8---------5------7--8-----10--8--8------3------------3---
B--------5----8----5---------5--5--12-----6--------6-5-----3------
G-------------4----5---------------9------5----------0--0--4------
D----------------------------------------------------------5------
A-----------------------------------------------------------------
E-----------------------------------------------------------------
               ^    ^                                     ^
e--------------0--------------------------------------------------
B---1------1-3-1----3--1--1--------0-1------------------0-1----1--
G--------------2----4-----0------2---2----0----2------2---2-------
D-------------------5-----2----------2----0----2----------2--2----
A-----------------------------------------2----3------------------
E-----------------------------------------------------------------
    ^     ^
e-----------------------------------------------------------------
B---3--1--1-------------------------------------------------------
G---0-----2-------0-----------------------------------------------
D---2-----3---------3-2--------5-----------0-2----0---------------
A---5-----------3--------3--5-----3------3---3----2--3--3---------
E---------------------------3----------------5----------0---------

e---------12----15--------12----15--------10--------7----8---7--5-
B---------13--------------13--------------8--------------10-------
G---12------------------------------------------------------------
D-----------------------------------------------------------------
A-----------------------------------------------------------------
E-----------------------------------------------------------------

e---5---3--------3----5----8--------10----8----10----12-----------
B-------5-------------5-------------8----------8-----13-----------
G-------7-------------5-------------------7----------12-----------
D-----------------------------------------------------------------
A-----------------------------------------------------------------
E-----------------------------------------------------------------

e---12----15--------12----15--------10--------7----8--------------
B---13--------------13--------------8--------------10--12--10-----
G--------------------------------------------------9--------------
D-----------------------------------------------------------------
A-----------------------------------------------------------------
E-----------------------------------------------------------------

e---5--3--------3----5----8---------10----8----10----8------------
B------5-------------5----10--------8----------------5------------
G------7-------------5----10-----------------------------------5--
D---------------------------------------------------------7-------
A-----------------------------------------------------------------
E-----------------------------------------------------------------

e---8---------8-----8---------------------------7----8--------0---
B---10--------10----10-------------------------------5------------
G---9---------9-----10----------------10--------7----5------------
D-------------------10----------10--------------------------------
A-------------------------12--------------------------------------
E-----------------------------------------------------------------
    ^                                        ^      ^
e---10------------8---------5------5-7-8--5--10--8--8----------3-1
B---12------------5----8----5----------5-----12-------------------
G---12-----------------4----5----------------9------10--10---2----
D---12----------------------------------------------10------------
A-----------------------------------------------------------------
E-----------------------------------------------------------------
                           ^    ^
e---0--------3-------------0--------------------------------------
B------1--3-----1------1-3-1----3--1--1--------0-1----------------
G---0--0--4----------------0----0-----0------2---2----0-----2-----
D---------5-----2---------------0-----2----------2----0-----2-----
A-----------------------------------------------------2--2--3-----
E-----------------------------------------------------------------
        ^     ^
e-----------------------------------------------------------------
B-----0-1-----3--1-0----------------------------------------------
G---2---2-----0------2--------0-----------------------------------
D-------2--2--2------3----------3-2--------5-----------0-2--------
A-------------5------3--3---0--------3--5-----3------3---3--------
E---------------------------------------3----------------5--------
                                                   ^
e-----------------------------------------10-12----10--8--8-------
B----------------1-3-5----3------------13----13-----------9-------
G--------------------5----4--5--5------------12----12-----8-------
D---0----------------3----5-----2------------14----12-------------
A---2--3--3---------------------3---------------------------------
E---------0-------------------------------------------------------

e-------------------------------------------------8--15--12-------
B---6----4----3--------6----3----5----------5--8---------13-------
G-------------3--------5---------5-------5-----5---------12-------
D-------------3------------------5----5-----5---------------------
A-----------------------------------------------------------------
E-----------------------------------------------------------------

^ - downstroke arpeggio

10 comments on End Theme

--3-- --5-- --7-- ----- -----

--3--
--5--
--7--
-----
-----
-----

how !?!

MaziluAurelian

MaziluAurelian said

--3--
--5--
--7--
-----
-----
-----

how !?!

That's pretty easy after some practice.

Elsewise,

--0--
--8--
--7--
-----
-----
-----    

or

--0-- (You can bump this up an octave for all harmonics)
----- 
--12- (Or bump these two down for all open.)
--12-
-----
-----   

Those work too, but I was

Those work too, but I was trying to make a smooth transition to the

--5--
--5--
--5--
-----
-----
-----

Whatever you think is easiest, a transcription is just a way of getting all the notes down, then you can rearrange them to your preference.

best fingers placement?

e-----
B---3-
G---0-
D---2-
A---5-
E----- how?? :O

Index on 2, middle on 3,

Index on 2, middle on 3, pinky on 5

thanks, but..

my middle finger's too long, while pinky's too short. so it's hard for the middle finger to press down for better sound and my index finger will end up touching the lower string. D:

Do you have your thumb on the

Do you have your thumb on the back of the neck? This chord should be pretty easy to play, but it'd probably be hard if you had your thumb wrapped around the neck.

If that's not the problem, I don't think I can help without seeing your hand @_@;

I'm shocked to see that the

I'm shocked to see that the chord is pretty easy to play, because it's so hard for me. ):
no, I've put my thumb at half of the fret board's back already. Guess it's the problem of my small hand and short fingers?
Is it really no other way to play that chord?
Anyway, thanks a lot for spending your time on reading my problem and helping me to solve it. :)

You could play the chord like

You could play the chord like this, but the two bottom notes will be out of order when arpeggiated

e-----
B--3--
G--0--
D--0--
A--7--
E-----

Or you can play the way it is written in the tab and leave out the bottom A5. Both A5 and B3 are D so you won't be changing the chord just leaving out the low D.

Ohhh.. thanks a lot! Though

Ohhh.. thanks a lot!
Though it's too bad that I can't play exactly according to the tab, but I guess it's good enough this way. Hope I can play that chord when my fingers are longer? :D