Login or Register to remove this ad. | Advertise Here

Spirit of Bladehenge (Brutal Legend) Guitar Tab

Submitted: Feb 17, 2010 by hslesperance (Last updated: Feb 17, 2011)

5
Average: 5 (2 votes)
Download | Listen
Game: Brutal Legend
Composer(s): Peter McConnell
Style: 2 or more instruments, Transcription

AutoScroll: Slow | Medium | Fast
Spirit of Bladehenge
Brutal Legend
Composed by Peter McConnell
Tabbed by hslesperance
2/17/10


Guitars 1 & 3 - Standard Tuning
Guitar 2 - Drop D Tuning



Guitar 1

0:25
e---------5-----------6-----------5-----5-----0---------------
B------6-----6-----6-----6-----6-----6-----6-----6------------
G---7-----------7-----------7---------------------------------
D-------------------------------------------------------------
A-------------------------------------------------------------
E-------------------------------------------------------------

e-------------------------------------------------------------
B------------5--6-----6p5----------------8--------------------
G---7-----7---------------7--7/9------9-----10------9---------
D------8-----------8--------------10------------10------------
A-------------------------------------------------------------
E-------------------------------------------------------------

e-----------5-----------6-------------8--------10-------------
B--------6-----6-----6-----6-------8---------------10---------
G---6/7-----------7-----------7/9--------9/10----------10--9--
D-------------------------------------------------------------
A-------------------------------------------------------------
E-------------------------------------------------------------

e-------------------------------------------------------------
B------------5--6-----6p5----------------8--------------------
G---7-----7---------------7--7/9------9-----10----------------
D------8-----------8--------------10--------------------------
A-------------------------------------------------------------
E-------------------------------------------------------------

e-------------------------------------------------------------
B---------6-----------6-----------6-----6-----6---------------
G------7-----7-----7-----7-----7-----------------7------------
D---8-----------8-----------8--------8-----8-------8----------
A-------------------------------------------------------------
E-------------------------------------------------------------

e-------------------------------------------------------------
B------------8------------8------------8------8---------------
G---------9-----9------9-----9------9-------------------------
D---8/10-----------10-----------11--------11-----11-----------
A-------------------------------------------------------------
E-------------------------------------------------------------

e-------------------------------------------------------------
B------------10-------------10--------------------------------
G---9----------------9--------------9-------------------------
D------10/11-----11-----11------11-----11---------------------
A-------------------------------------------------------------
E-------------------------------------------------------------

e---------5-----------6-----------5-----5-----0---------------
B------6-----6-----6-----6-----6-----6-----6-----6------------
G---7-----------7-----------7---------------------------------
D-------------------------------------------------------------
A-------------------------------------------------------------
E-------------------------------------------------------------

e-------------------------------------------------------------
B------------5--6-----6p5----------------8--------------------
G---7-----7---------------7--7/9------9-----10------9---------
D------8-----------8--------------10------------10------------
A-------------------------------------------------------------
E-------------------------------------------------------------

e---------5-----------6---------------------------------------
B------6-----6-----6------------------------------------------
G---7-----------7---------------------------------------------
D-------------------------------------------------------------
A-------------------------------------------------------------
E-------------------------------------------------------------

e---------5-----------6-----------5-----5-----0---------------
B------6-----6-----6-----6-----6-----6-----6-----6------------
G---7-----------7-----------7---------------------------------
D-------------------------------------------------------------
A-------------------------------------------------------------
E-------------------------------------------------------------

e-------------------------------------------------------------
B------------5--6-----6p5----------------8--------------------
G---7-----7---------------7--7/9------9-----10------9---------
D------8-----------8--------------10------------10------------
A-------------------------------------------------------------
E-------------------------------------------------------------

e-----------5-----------6-------------8--------10-------------
B--------6-----6-----6-----6-------8---------------10---------
G---6/7-----------7-----------7/9--------9/10----------10--9--
D-------------------------------------------------------------
A-------------------------------------------------------------
E-------------------------------------------------------------

e-------------------------------------------------------------
B------------5--6-----6p5----------------8--------------------
G---7-----7---------------7--7/9------9-----10----------------
D------8-----------8--------------10--------------------------
A-------------------------------------------------------------
E-------------------------------------------------------------


Guitar 2

e-------------------------------------------------------------
B-------------------------------------------------------------
G-------------------------------------------------------------
D-------------------------------------------------------------
A---8--7-8----5----------------0------------------------------
D---8--7-8----5----------------0------------------------------

e-------------------------------------------------------------
B-------------------------------------------------------------
G-------------------------------------------------------------
D-------------------------------------------------------------
A---8--7-8----5--6/7--3--------0------------------------------
D---8--7-8----5--6/7--3--------0------0------0-------0------0-

    0:30             0:33             0:36
e-------------------------------------------------------------
B-------------------------------------------------------------
G-------------------------------------------------------------
D-------------------------------------------------------------
A-------------------------------------5-----------------------
D---0----------------0----------------7-----------------------

e-------------------------------------------------------------
B-------------------------------------------------------------
G-------------------------------------------------------------
D-------------------------------------------------------------
A-------------------------------------------------------------
D-------------------------------------------------------------

0:44
e-------------------------------------------------------------
B-------------------------------------------------------------
G-------------------------------------------------------------
D-------------------------------------------------------------
A---7---------------------------------------------------------
D---7---------------------------------------------------------

1:03
e-------------------------------------------------------------
B-------------------------------------------------------------
G-------------------------------------------------------------
D-------------------------------------------------------------
A---0---------------------------------------------------------
D---0---------------------------------------------------------

1:12
e-------------------------------------------------------------
B-------------------------------------------------------------
G-------------------------------------------------------------
D-------------------------------------------------------------
A---0---------------------------------------------------------
D---0---------------------------------------------------------


Guitar 3

1:23                              1:34
e-------------------------------------------------8------10---
B---10------11------10------------10------11------------------
G-------------------------------------------------------------
D-------------------------------------------------------------
A-------------------------------------------------------------
E-------------------------------------------------------------

p - pull off
/ - slide up

1 comment on Spirit of Bladehenge

Great Tab!

5

Sounds really good! Good Job man!