Login or Register to remove this ad. | Advertise Here

Raptor's Veld (Brutal Legend) Guitar Tab

Submitted: Jan 25, 2010 by Hypoxia

5
Average: 5 (1 vote)
Download | Listen
Game: Brutal Legend
Composer(s): Peter McConnell
Style: Natural harmonics, Transcription

AutoScroll: Slow | Medium | Fast
Raptor's Veld
Brutal Legend
Composed by Peter McConnell
Tabbed by Justin Freitas
Tabbed January 23rd, 2010

Standard Tuning
             NH NH NH
e------------7---------
B------------------7---
G---------------5------         x2
D----------------------
A---7------------------
E----------------------

e----------------------------------------
B-----7h8p7-5-3-5------------------------
G-----------------4-5---4---4----4-------
D---------------------5---7----5---4h5---
A----------------------------------------
E---0------------------------------------


e--------------------------------------
B-----7h8p7-5-3-5----------------------
G-----------------4-5---4---4----4-----         x2
D---------------------5---7----5---4---
A--------------------------------------
E---0----------------------------------

e-------------------------
B-------------------------
G-------------------------
D-------------------------
A-----7h8p7s5s3-----------
E---0-----------5---3-0~--