Login or Register to remove this ad. | Advertise Here

The Chosen Roadie (Brutal Legend) Guitar Tab

Submitted: Jan 25, 2010 by Hypoxia

0
Download | Listen
Game: Brutal Legend
Composer(s): Peter McConnell
Style: Transcription

AutoScroll: Slow | Medium | Fast
The Chosen Roadie
Brutal Legend
Composed by Peter McConnell
Tabbed by Justin Freitas
Tabbed January 23rd, 2010


Drop D tuning


e--------------------------------------------------------
B--------------------------------------------------------
G--------------------------------------------------------
D-----2~p0h2--7-5---------------------10-9-7--5s7~-5s7~--
A---0---------5-3-5-7--7h8p7p5h7p5h7---8-7-5--3s5~-3s5~--
D-----------------5-7------------------------------------

Drop D tuning

e------------------
B--------------9---
G---7--7-7-7-7-8---
D---7--7-7-7-7-6---
A---5--5-5-5-5-----
D------------------

e--------------------------------------------------------------------------
B--------------------------------------------------------------------------
G--------------------------------------------------------------------------
D---0~-0~-0~-0~-0~---------------0--0--0--0--0--0--0--0--0--0--0--0--0--0~-
A--------------------------------0--0--0--0--0--0--0--0--0--0--0--0--0--0~-
D-------------------3p2-3p2-0-0~-0--0--0--0--0--0--0--0--0--0--0--0--0--0~-

x = palm mute

e-------------------------------------------------------------
B-------------------------------------------------------------
G-------------------------------------------------------------
D---x--x--x--x--x--x--x--x--0--3--0--x--x--x--x--x--x--x--x---
A---x--x--x--x--x--x--x--x--0--3--0--x--x--x--x--x--x--x--x---
D---x--x--x--x--x--x--x--x--0--3--0--x--x--x--x--x--x--x--x---

e---------------------------------------------------
B---------------------------------------------------
G---10-9-10--7-9-9--5-7-7--7---10-9-10--7-9-9--5s12-
D---10-9-10--7-9-9--5-7-7--7-0-10-9-10--7-9-9--5s12-
A----8-7--8--5-7-7--3-5-5--5-0--8-7--8--5-7-7--3s10-
D----------------------------0----------------------
Continuation from above
---------------------------------------
---------------------------------------
---10-9-10--7-9-9--5-7-7--7--5-4-------    x2
---10-9-10--7-9-9--5-7-7--7--5-4-3-5---
----8-7--8--5-7-7--3-5-5--5--3-2-3-5---
---------------------------------3-5---

e---------------------------------|-------------------------------|---------------------------------------
B---------------------------------|------------------------18-----|---------------------------------------
G---------------------------------|---------------------17----19--|---------------------------------------
D---3--0--3h5-0~--6--6--8--9--12~-|-12~-14~-15-16-17-19-----------|-10~-7~-5~-3~-2~-12~-10~-7~-5~-3~-2~---
A---3--0--3h5-0~--6--6--8--9--12~-|-------------------------------|-10~-7~-5~-3~-2~-12~-10~-7~-5~-3~-2~---
D---3--0--3h5-0~--6--6--8--9--12~-|-------------------------------|-10~-7~-5~-3~-2~-12~-10~-7~-5~-3~-2~---